Intoxicado

To add a personal list must
or

Viejas Locas

Version
studio
published by
iri
Tone
A-
A+
Slide
A -> La
Video
Chords
Translation
	 
[Riff]
C5 A5 C5 A5
e|----------------------------|----------------------------------|

b|--------------------------8-|-------------------------8-8------|

g|----5--2--2-2-2-2----2/9-9--|----5--2--2-2-2-2----2/9-9-9--7--5|

D|----5--2--2-2-2-2-----------|----5--2--2-2-2-2-----------------|x2

A|----3--0--0-0-0-0-----------|----3--0--0-0-0-0-----------------|

E|----------------------------|----------------------------------|

[Verse]
C5 A5
a nadie importa si yo cuido mi flor
C5 A5
yo la protejo contra el viento
C5 A5
la riego un poco y la llevo al sol
C5 A5
y con su fruto
[Chorus]
D5 A5
intoxicado estoy y por las calles voy
D5 A5
intoxicado estoy y por las calles voy
D5 A5
intoxicado estoy y por las calles voy
D5 A5
intoxicado estoy y por las calles voy
[Riff]
C5 A5 C5 A5
e|----------------------------|----------------------------------|

b|--------------------------8-|-------------------------8-8------|

g|----5--2--2-2-2-2----2/9-9--|----5--2--2-2-2-2----2/9-9-9--7--5|

D|----5--2--2-2-2-2-----------|----5--2--2-2-2-2-----------------|

A|----3--0--0-0-0-0-----------|----3--0--0-0-0-0-----------------|

E|----------------------------|----------------------------------|

[Verse]
C5 A5
un mezcalito que te va a gustar
C5 A5
con su veneno ella juega
C5 A5
una flor muerta como las demás
C5 A5
y con su fruto.
[Chorus]
D5 A5
intoxicado estás y por las calles vas
D5 A5
intoxicado estás y por las calles vas
[Riff]
C5 A5 C5 A5
e|---------|---------------|------|---------------|

b|---------|---------------|------|---------------|

g|----5--2-|-2-4-2-4-5-4-2-|-5--2-|-2-4-2-4-5-4-2-|

D|----5--2-|-2-2-2-2-2-2-2-|-5--2-|-2-2-2-2-2-2-2-|

A|----3--0-|-0-0-0-0-0-0-0-|-3--0-|-0-0-0-0-0-0-0-|

E|---------|---------------|------|---------------|

[Solo]
D5 - A5

D5 - A5

D5 - A5

D5 - A5

A5

[Verse]
C5 A5
a nadie importa si yo cuido mi flor
C5 As5
yo la protejo contra el viento
C5 A5
la riego un poco y la llevo al sol
C5 A5
y con su fruto
[Chorus]
D5 A5
intoxicado estoy y por las calles voy
D5 A5
intoxicado estoy y por las calles voy
D5 A5
intoxicado estoy y por las calles voy
D5 A5
intoxicado estoy y por las calles voy
[Bridge]
D5 - A5

D5 - A5

D5 - A5

D5 - A5

A5

[Riff]
C5 A5 C5 A5
e|---------|---------------|------|---------------|

b|---------|---------------|------|---------------|

g|----5--2-|-2-4-2-4-5-4-2-|-5--2-|-2-4-2-4-5-4-2-|

D|----5--2-|-2-2-2-2-2-2-2-|-5--2-|-2-2-2-2-2-2-2-|

A|----3--0-|-0-0-0-0-0-0-0-|-3--0-|-0-0-0-0-0-0-0-|

E|---------|---------------|------|---------------|

[Bridge]
A5
A nadie importa si yo cuido mi flor