Chance

Para añadir a una lista personal debes
ó

Attaque 77

Versión
estudio
publicado por
iri
Tono
A-
A+
Deslizar
A -> La
Video
Acordes
	 
[Intro]
E
[Estrofa]
E Bm
Día a día aprendiendo a ser
F#m A
Miro hacia atrás y todo el camino hecho
E Bm
Lo que pudo ser y lo que fue
F#m A
Mi oportunidad de comenzar de nuevo
F#m G#m C#m A A7
...Y lo demás... francamente no importa.
[Estrofa]
E Bm
Quién fui todo este tiempo no sé
F#m A
Quién soy o seré, habré cumplido un sueño
E Bm
Intentando la felicidad
F#m A
A prueba y error, la vida es un momento
F#m G#m C#m A A7
...Y lo demás... francamente no importa
[Estribillo]
F#m
Te miro fijo y me sonreís
D
No pierdo un día lejos de ti
A E
Mi chance es hoy
F#m
Miro tus ojos y me veo ahí
D
Aprovechando cada ocasión
A E
Mi chance es hoy
[Estrofa]
E Bm
Tantas cosas que habré hecho bien
F#m A
Tantas que hice mal y que ni ahí me entero
E Bm
Cuánto que desperdicié sin ver
F#m A
Que estuviste ahí conmigo todo el tiempo
F#m G#m C#m A A7
...Y hoy lo demás francamente no importa.
[Estribillo]
F#m
Te miro fijo y me sonreís
D
No pierdo un día lejos de ti
A E
Mi chance es hoy
F#m
Miro tus ojos y me veo ahí
D
Aprovechando cada ocasión
A E
Mi chance es hoy
[Solo]
E Bm F#m A
e|---------------------------------------------------------------------|

b|------------------------------------7---7----------------------------|

g|-9-11-11b13-9~~-7--7-9-9b11-7~~--/6---6---6--9-9-9h11----------------|

D|------------------------------------------------------11~~--9--7--9~~|

A|---------------------------------------------------------------------|

E|---------------------------------------------------------------------|

E Bm F#m A
e|----------------------------------------------------------------|

b|------------------------------------7---7---7-------------------|

g|-9-11-11b13-9~~-7--7-9-9b11-7~~--/6---6---6----14-14-16/18-14~~~|

D|----------------------------------------------------------------|

A|----------------------------------------------------------------|

E|----------------------------------------------------------------|

e|------------------------------|

b|------------------------------|

g|--14h16p14--------------------|

D|-------------14---------------|

A|------------------------------|

E|------------------------------|

[Puente]
F#m G#m C#m A A7
...Y hoy lo demás francamente no importa
[Estribillo]
F#m
Te miro fijo y me sonreís
D
No pierdo un día lejos de ti
A E
Mi chance es hoy
F#m
Miro tus ojos y me veo ahí
D
Aprovechando cada ocasión
A E
Mi chance es hoy.
F#m
Te miro fijo y me sonreís
D
No pierdo un día lejos de ti
A E
Mi chance es hoy.
F#m
Miro tus ojos y me veo ahí
D
Aprovechando cada ocasión
A E
Mi chance es hoy.
F#m
Te miro fijo y me sonreís
D
No pierdo un día lejos de ti
A E
Mi chance es hoy.
F#m
Miro tus ojos y me veo ahí
D
Aprovechando cada ocasión
A E
Mi chance es hoy.
[Outro]
[F#m - D - A - E]
Este sitio usa cookies