No me arrepiento de este amor

+ nueva lista

Attaque 77

Versión
estudio
publicado por
iri
Tono
A-
A+
Deslizar
A -> La
Video
Acordes
	 
[Riff]
G5 Bb5
e|-----------------|-----------------|-----------------|-----------------|

b|-----------------|-----------------|-----------------|-----------------|

g|-----------------|-----------------|-----------------|-----------------|

D|-----------------|-----------------|-----------------|-----------------|

A|-----------------|-----------------|-------------3-3-|-5---5-5-3-3---5-|

E|---------3---5---|-6---6-6-5-5-5-3-|(3)----3-6-6-----|-------------6---|

F5 G5
e|-----------------|-----------------|-----------------|-----------------|

b|-----------------|-----------------|-----------------|-----------------|

g|-----------------|-----------------|-----------------|-----------------|

D|-----------------|-----------------|-----------------|-----------------|

A|(5)----5-5-5-6-5-|-3---3-3---------|-----------3-5-3-|-----------------|

E|-----------------|---------6-6-6-5-|(5)----5-5-------|-6---6-6-5-5-5-3-|

G5 Bb5
e|-----------------|-----------------|-----------------|-----------------|

b|-----------------|-----------------|-----------------|-----------------|

g|-----------------|-----------------|-----------------|-----------------|

D|-----------------|-----------------|-----------------|-----------------|

A|-----------------|-----------------|-------------3-3-|-5---5-5-3-3---5-|

E|(3)----3-3-3-5-5-|-6---6-6-5-5-5-3-|(3)----3-6-6-----|-------------6---|

F5 G5
e|-----------------|-----------------|-----------------|-----------------| -----|

b|-----------------|-----------------|-----------------|-----------------| -----|

g|-----------------|-----------------|-----------------|-----------------| -----|

D|-----------------|-----------------|-----------------|-----------------| -----|

A|(5)----5-5-5-6-5-|-3---3-3---------|-----------3-5-3-|-----------------| -----|

E|-----------------|---------6-6-6-5-|(5)----5-5-------|-6---6-6-5-5-5-3-|-(3)-|

[Estrofa]
G5
No me arrepiento de este amor,
Bb5
aunque me cueste el corazón;
F5
amar es un milagro, y yo te amé,
G5
como nunca jamás lo imaginé.
[Estrofa]
G5
Tiendo a arrancarme de tu piel,
Bb5
de tu mirada, de tu ser,
F5
Yo siento que la vida se nos va,
G5
y que el día de hoy no vuelve más.
[Estribillo]
Bb5
Después de cerrar la puerta,
F5
nuestra cama espera abierta
D#5 Bb5 - F5
la locura apasionada del amooooooor.
Bb5
Y entre un 'te quiero' y 'te quiero'
F5
vamos remontando al cielo,
D#5 D5
y no puedo arrepentirme de este amor.
[Estrofa]
G5
No me arrepiento de este amor,
Bb5
aunque me cueste el corazón;
F5
amar es un milagro, y yo te amé,
G5
como nunca jamás lo imaginé.
[Estrofa]
G5
Tiendo a arrancarme de tu piel,
Bb5
de tu mirada, de tu ser,
F5
Yo siento que la vida se nos va,
G5
y que el día de hoy no vuelve más.
[Riff]
G5 Bb5
e|-----------------|-----------------|-----------------|-----------------|

b|-----------------|-----------------|-----------------|-----------------|

g|-----------------|-----------------|-----------------|-----------------|

D|-----------------|-----------------|-----------------|-----------------|

A|-----------------|-----------------|-------------3-3-|-5---5-5-3-3---5-|

E|---------3-3-5-5-|-6---6-6-5-5-5-3-|(3)----3-6-6-----|-------------6---|

F5 G5
e|-----------------|-----------------|-----------------|-----------------|

b|-----------------|-----------------|-----------------|-----------------|

g|-----------------|-----------------|-----------------|-----------------|

D|-----------------|-----------------|-----------------|-----------------|

A|(5)----5-5-5-6-5-|-3---3-3---------|-----------3-5-3-|-----------------|

E|-----------------|---------6-6-6-5-|(5)----5-5-------|-6---6-6-5-5-5-3-|

G5 Bb5
e|-----------------|-----------------|-----------------|-----------------|

b|-----------------|-----------------|-----------------|-----------------|

g|-----------------|-----------------|-----------------|-----------------|

D|-----------------|-----------------|-----------------|-----------------|

A|-----------------|-----------------|-------------3-3-|-5---5-5-3-3---5-|

E|(3)----3-3-3-5-5-|-6---6-6-5-5-5-3-|(3)----3-6-6-----|-------------6---|

F5 G5
e|-----------------|-----------------|-----------------|-----------------| -----|

b|-----------------|-----------------|-----------------|-----------------| -----|

g|-----------------|-----------------|-----------------|-----------------| -----|

D|-----------------|-----------------|-----------------|-----------------| -----|

A|(5)----5-5-5-6-5-|-3---3-3---------|-----------3-5-3-|-----------------| -----|

E|-----------------|---------6-6-6-5-|(5)----5-5-------|-6---6-6-5-5-5-3-|-(3)-|

[Estribillo]
Bb5
Después de cerrar la puerta,
F5
nuestra cama espera abierta
D#5 Bb5 - F5
la locura apasionada del amooooooor.
Bb5
Y entre un 'te quiero' y 'te quiero'
F5
vamos remontando al cielo,
D#5 D5
y no puedo arrepentirme de este amoooooor.
[Estrofa]
G5
No me arrepiento de este amor,
Bb5
aunque me cueste el corazón;
F5
amar es un milagro, y yo te amé,
G5
como nunca jamás lo imaginé.
[Estrofa]
G5
Tiendo a arrancarme de tu piel,
Bb5
de tu mirada, de tu ser,
F5
Yo siento que la vida se nos va,
G5
y que el día de hoy no vuelve más.
[Puente]
[G5 - Bb5 - F5 - G5] x2
[Solo]
G5
e|-----------------|---------------------------------|

b|-----------------|---------------------------------|

g|-----------------|---------------------------------|

D|-----------------|-----------------------------8---|

A|-10--------------|(10)-------------10--8---10------|

E|-----------------|---------------------------------|

Bb5 F5
e|---------------------------------|-----------------|-----------------|

b|---------------------------------|-----------------|-----------------|

g|---------------------------------|-----------------|-----------------|

D|(8)------------------------------|-----------------|---------8-------|

A|-----------------10--8-------8---|(8)----------8---|-10--------------|

E|-------------------------10------|-----------------|-----------------|

G5
e|---------------------------------|-----------------|-----------------|

b|---------------------------------|-----------------|-----8-----8-----|

g|---------------------------------|-----------------|-7b----7b--------|

D|-10br----8-------10br--------8---|-----------------|-----------------|

A|-------------------------10------|---10------------|-----------------|

E|---------------------------------|-----------------|-----------------|

G5 Bb5
e|-------6---------|---6-------------|-------6---------|---6-------------|

b|-8-6-----8-6-8-6-|-----8-6-8-6-----|-8-6-----8-6-8-6-|-----8-6-8-6-----|

g|-----7-----------|-7-----------7-7-|-----7-----------|-7-----------7-7-|

D|-----------------|-----------------|-----------------|-----------------|

A|-----------------|-----------------|-----------------|-----------------|

E|-----------------|-----------------|-----------------|-----------------|

F5 G5
e|-8b--------------|-------br8-----6-|-8-6-------------|---------------------|

b|-----------------|-----------------|-----8-----------|(8)-------1515-------|

g|-----------------|-----------------|-----------------|---------------------|

D|-----------------|-----------------|-----------------|---------------------|

A|-----------------|-----------------|-----------------|---------------------|

E|-----------------|-----------------|-----------------|---------------------|

G5
e|---------15----------15----------|-15----------15----------15------|

b|-15----------15----------15--15--|-----15--15------15--15------15--|

g|---------------------------------|---------------------------------|

D|---------------------------------|---------------------------------|

A|---------------------------------|---------------------------------|

E|---------------------------------|---------------------------------|

Bb5
e|---------15----------15----------|-15----------15----------15------|

b|-15--15------15--15------15--15--|-----15--15------15--15------15--|

g|---------------------------------|---------------------------------|

D|---------------------------------|---------------------------------|

A|---------------------------------|---------------------------------|

E|---------------------------------|---------------------------------|

F5
e|---------15----------15----------|-15------------------------------|

b|-15--15------15--15------15--15--|-----15--15--15--13br------------|

g|---------------------------------|-------------------------15--12--|

D|---------------------------------|---------------------------------|

A|---------------------------------|---------------------------------|

E|---------------------------------|---------------------------------|

G5
e|---------------------------------|---------------------------------|

b|---------------------------------|---------------------------------|

g|(12)-12----------------------15--|(15)-----12------12--------------|

D|---------------------------------|-------------15------------------|

A|---------------------------------|---------------------------------|

E|---------------------------------|---------------------------------|

G5
e|---------------------------------|---------------------------------|

b|-13--11------11----------11------|-----11----------11--------------|

g|---------12------12--10------12--|-10------12--10------12--10--10--|

D|---------------------------------|---------------------------------|

A|---------------------------------|---------------------------------|

E|---------------------------------|---------------------------------|

Bb5
e|---------------------------------|---------------------------------|

b|-11----------11----------11------|-----11----------11----------1313|

g|-----12--10------12--10------12--|-10------12--10------12--10------|

D|---------------------------------|---------------------------------|

A|---------------------------------|---------------------------------|

E|---------------------------------|---------------------------------|

F5
e|-----------------13----------13--|---------13----------------------|

b|-13------13b---------13b---------|-13b---------13br--11--13-----11-|

g|---------------------------------|---------------------------------|

D|---------------------------------|---------------------------------|

A|---------------------------------|---------------------------------|

E|---------------------------------|---------------------------------|

G5
e|---------------------------------|---------------------------------|

b|(11)-----------------------------|---------------------------------|

g|---12----------12----------------|-\\\\\\\\\\//////////----7-------|

D|---------------------------------|---------------------------------|

A|---------------------------------|---------------------------------|

E|---------------------------------|---------------------------------|

G5 Bb5
e|-------6---------|---6-------------|-------6---------|---6-------------|

b|-8-6-----8-6-8-6-|-----8-6-8-6-----|-8-6-----8-6-8-6-|-----8-6-8-6-----|

g|-----7-----------|-7-----------7-7-|-----7-----------|-7-----------7-7-|

D|-----------------|-----------------|-----------------|-----------------|

A|-----------------|-----------------|-----------------|-----------------|

E|-----------------|-----------------|-----------------|-----------------|

F5 G5
e|-------6---------|-----------------|-----------------|-----------------|

b|-8-6-----8-6---8-|-6---8-6---8-6-8-|(8)--------------|-----------------|

g|-----7-------7---|---7-----7-------|-------------7---|-5b5b------------|

D|-----------------|-----------------|-----------------|-----8-5---------|

A|-----------------|-----------------|-----------------|-----------------|

E|-----------------|-----------------|-----------------|-----------------|

G5
e|-----------------|-----------------|-----------------|

b|-----------------|-----------------|-----------------|

g|-----------------|-----------------|-----------------|

D|-8---------------|(8)--------------|(8)--------------|

A|-----------------|-----------------|-----------------|

E|-----------------|-----------------|-----------------|

Este sitio usa cookies