Dos Cero Uno

Para añadir a una lista personal debes
ó

Charly García

Versión
estudio
publicado por
iri
Tono
A-
A+
Deslizar
A -> La
Video
Acordes
	 
[Intro]
e|-1-0-------1-|-----------|

B|-1---3-1-1-0-|-6-5-3-1-1-|

G|-2-------2-0-|-7-5-3-0-2-|

D|-3-------3---|-8-5-3-2-3-|

A|-------------|---3-3-3-0-|

E|---------3-3-|-8---------| x2

[Intro]
[Fmaj7 Dm7|F/G G7|Bb/C C Bb/C C| Fmaj7] x2
[Estrofa]
F C/E Dm7 F/C
El se cansó de hacer canciones de protesta
Bdim Bb/C
y se vendió a Fiorucci
F C/E Dm7 F/C
El se cansó de andar haciendo apuestas
G9 C7sus4
y se puso a estudiar
[Estribillo]
Aaug7 Aaug7/C# Dm7 F/C
Un día se cortará el pelo
Bb F/A G7 C7sus4
No creo que pueda dejar de fumar
F C/E Dm7 F/C
Anda volado, hace un poco de base pero
Bb C F
no le va mal
[Tablatura]
F F F
e|---1---1---1-|

B|---1---1---1-|

G|---2---2---2-|

D|---3---3---3-|

A|---3---3---3-|

E|-1---1---1---|

[Estrofa]
F C/E Dm7 F/C
No se alquiló un guardespaldas negro,
Bdim Bb/C
no era Lennon ni Rucci
F C/E Dm7 F/C
Se pregunto porqué sus hijos nunca lo
G9 C7sus4
invitaban al bar
[Estrofa]
Aaug7 Aaug7/C# Dm7 F/C
Un dia volverá a las fuentes
Bb F/A G7 C7sus4
No creo que pueda dejar de protestar
F C/E Dm7 F/C
Anda ocupado, perdió algo de fama
Bb C F
no le va mal
[Puente]
Bbmaj7 Dm7
Transas, transas,
Bbmaj7 F
transas, transas
[Puente]
|F |Gsus4-G7| C7sus4|
[Outro]
F - F/A F/G G7
LA LA LA laralala...
Bb6/C Bbmaj7 F
LA LA LA larala...
[Tablatura]
F F F
e|---1---1---1-|

B|---1---1---1-|

G|---2---2---2-|

D|---3---3---3-|

A|---3---3---3-|

E|-1---1---1---|

Este sitio usa cookies