Necesito tu Amor

Para añadir a una lista personal debes
ó

Charly García

Versión
estudio
publicado por
iri
Tono
A-
A+
Deslizar
A -> La
Video
Acordes
	 
[Riff]
e|--3--2--0----|--3--2--3--5-| |--5--3--1--3--2--2--| |-------------|

b|--3--3--3--3-|--3--3--3--3-| |--3--1--1--3--3--3--| |---3/2-------|

g|-----------2-|-------------|x2|-----------------2--|x3|-------5---2-|

D|-------------|-------------| |--------------------| |---------5---|

A|-------------|-------------| |--------------------| |-------------|

E|-------------|-------------| |--------------------| |-------------|

[Estrofa]
Dsus4 D Dsus2 D
Voy a cam- biar,
Dsus4 D Dsus4 D12
voy a insis- tir
Dsus4 D Dsus2 D
voy a pe- lear
Dsus4 D Dsus4 D12
voy a se- guir.
[Estribillo]
G9 F9 Dsus4 D D2
Yo necesito tu amor
G9 F9 Dsus4 D D2
tu amor me salva y me sirve
G9 F9 Dsus4 D D2
yo necesito tu amor
A
cada día más.
[Post-Estribillo]
F C Dm
Yo tengo el vicio de dejarme llevar
G Dm
y poner mi cabeza en Marte
F C Dm
tengo prejuicios que no puedo sacar
G Dm
tengo un cuerpo que quiere amarte
[Puente]
A G Bm
Yo vi tu amor
A G D Dsus4
yo vi tu amor
[Riff]
e|-15-14-12----|-15-14-15-17--| |-17-15-13------------|

b|----------15-|--------------| |------------15-13----|

g|-------------|--------------|x2|------------------14-|x3

D|-------------|--------------| |---------------------|

A|-------------|--------------| |---------------------|

E|-------------|--------------| |---------------------|

[Estrofa]
Dsus4 D Dsus2 D
Den- tro del mal
Dsus4 D Dsus4 D12
cer- ca del fin
Dsus4 D Dsus2 D
cer- ca de vos
Dsus4 D Dsus4 D12
den- tro de mi
[Estribillo]
G9 F9 Dsus4 D D2
Yo necesito tu amor
G9 F9 Dsus4 D D2
tu amor me salva y me sirve
G9 F9 Dsus4 D D2
yo necesito tu amor
A
cada día un poco más.
[Post-Estribillo]
F C Dm
No tengo nadie que yo quiera escuchar
G Dm
ni pasiones para abrigarme
F C Dm
no tengo máscara ni tengo disfraz
G Dm
ni señales para guiarme
A G Bm
al menos hoy,
A G D Dsus4
al menos hoy.
[Outro]
A Bm

A Bm

D Dsus4

D Dsus4

Este sitio usa cookies