Dirty Harry

Para añadir a una lista personal debes
ó

Gorillaz

Versión
estudio
publicado por
rafah
Tono
A-
A+
Deslizar
A -> La
Video
[Capotraste en 1]
Acordes
Traducción
	 
[Tablatura]
Repeat x2

E c|---5-----------------5----------------------5----|

A a|----------------------------------7--5--3--------|

D p|------7--5--7--5--7-----7--5--7------------------|

G o|-------------------------------------------------|

B |-------------------------------------------------|

E 1|-------------------------------------------------|

Am C G D [...]

E |--5-----------------5---5--------------------------------5---|

A |-----3-------5--3----------3-----------------7---5---3-------|

D |---------2---------------------2----7--5-5-------------------|

G |-------------------------------------------------------------|

B |-------------------------------------------------------------|

E |-------------------------------------------------------------|

[Estrofa]
Am C G D
I need a gun to keep myself from harm
Am C G D
The poor people are burning in the sun
Am C G D
But they ain't got a chance, they ain't got a chance
Am C G D
I need a gun 'cos all I do is dance
G Am
'Cos all I do is dance



[For the rap part use the same chords

Repeat all the chords for the whole song]