Cherry

Para añadir a una lista personal debes
ó

Harry Styles

Versión
estudio
publicado por
brizna
Tono
A-
A+
Deslizar
A -> La
Video
[Capotraste en 7]
Acordes
Traducción
	 
[Intro]
C
e|-3-------3-----0-------0-----|---------0-------------------|

B|----1-------------1------1---|-3-------------1-------1-----|

G|-------0---0---------0-------|----0------0------0----------|

D|-----------------------------|-------2-------------2---2---| x2

A|-3-------------3-------------|-3-------------3-------------|

E|-----------------------------|-----------------------------|

Am
e|-3-------3-----0-------0-----|---------0-------------------|

B|----1-------------1----------|-3-------------1-------1-----|

G|-------2---2---------2---2---|----2------2------2----------|

D|-----------------------------|-------2-------------2---2---|

A|-0-------------0-------------|-0-------------0-------------|

E|-----------------------------|-----------------------------|

F
e|-3-------3-----0-------0-----|---------0-------------0-----|

B|----1-------------1----------|-3-------------1-------------|

G|-------2---2---------2---2---|----2------2------2----------|

D|-3-------------3-------------|-3-----3-------3-----3---2---|

A|-----------------------------|-----------------------------|

E|-----------------------------|-----------------------------|

[Intro]
Coucou
[Estribillo]
C
Don't you call him baby
C
We're not talking lately
Am F
Don't you call him what you used to call me
[Estrofa]
C
I, I confess I can tell that you are at your best
Am F
I'm selfish so I'm hating it
C
I noticed that there's a piece of you in how I dress
Am F
Take it as a compliment
[Estribillo]
C
Don't you call him "baby"
C
We're not talking lately
Am F
Don't you call him what you used to call me
[Estrofa]
C
I, I just miss
C
I just miss your accent and your friends
Am F
Did you know I still talk to them?
[Puente]
G F Am7 Dm
Does he take you walking 'round his parents' gallery?
[Estribillo]
C
Don't you call him "baby"
C
We're not talking lately
Am F
Don't you call him what you used to call me
C
Don't you call him "baby" (Coucou)
C
We're not talking lately
Am F
Don't you call him what you used to call me (Coucou)
[Outro]
Coucou ! Tu dors ? Oh, je suis désolée ...
Bah non... Nan, c'est pas important...
Bon allez
On a été à la plage et maintenant on—
Parfait ! Harry
Este sitio usa cookies