Versión
estudio
publicado por
iri
Tono
A-
A+
Deslizar
A -> La
Video
Acordes
	 
[Intro]
e|----------------------------------------------|

b|----------------------------------------------|

g|----------------------------------------------|

D|-----9-7-6-7-6-------------7-5-4-5-4----------|x2

A|---9-----------9-9-7-6---7-----------7-7------|

E|-7---------------------5-----------------5-6--|

e|---------------------------------|

b|---5-3---5-3--------3-2---3-2----|

g|-------4-----4-4h2------2-----2--|

D|---------------------------------|

A|---------------------------------|

E|-7-------------------------------|

[Intro]
[A/C# - D6 - A/C# - D6 - A/C# - Bm]x2
[Estrofa]
Bm A
Su amnesia esta bajo un aguacero hoy
Bm A
Y así hace del pichicho profeta cruel
Bm A
Vuelcan su jugo allí y luego se van
Bm A
La piba esa, el y un atún
[Estribillo]
A/C# D6 A/C# D6 Bm
Un agujero allí de un año
A/C# D6 A/C# D6 Bm
Ningún recuerdo... nada... nada
[Tablatura]
e|--------------------------------------------------------------------7----|

b|-7-5---------------7--5-------------------------------7------7-----------|

g|-----------7-6--4-----------7-6-4----4-6-7----------7--------------------|

D|-------------------------------------------------------------------------|x2

A|-------------------------------------------------------------------------|

E|-------------------------------------------------------------------------|

[Estrofa]
Bm A
No actúa por amor ni por esplendor
Bm A
Se raja al culeodromo a recordar
Bm A
Se va a fumar alli el purete mejor
Bm A
Y va a matar el tiempo asi
[Estribillo]
A/C# D6 A/C# D6 Bm
Mareos que dan gran jaleo
A/C# D6 A/C# D6 Bm
Modales que son malas mañas
[Puente]
Bm - A

Bm - A

[Estribillo]
A/C# D6 A/C# D6 Bm
Ningún recuerdo... nada... nada
[Estrofa]
Bm A
Escamas que al fin, huyen de su piel
Bm A
Lagrimas que le muerden el corazón
Bm A
Van a ver quien se come a quien esta vez
Bm A
La piba esa, el y un atún
[Outro]
Bm - A