Versión
estudio
publicado por
iri
Tono
A-
A+
Deslizar
A -> La
Video
Acordes
	 
[Intro]
e|--3-2-----------------| |---10----|

B|------5-3-5-----------| |------8--|

G|----------------------| |---------|

D|----------------5--7--|x3 |---------|x6

A|----------------3--5--| |---------|

E|----------------------| |---------|

e|--3-2-----------------| |---10----|

B|------5-3-5-----------| |------8--|

G|----------------------| |---------|

D|----------------5--7--|x3 |---------|x6

A|----------------3--5--| |---------|

E|----------------------| |---------|

e|----------------| |---|

B|----------------| |---|

G|----------------| |-7-|

D|--10-9-7----7-9-|x2|-7-|

A|---------10-----| |-5-|

E|----------------| |---|

[Intro]
E5
[Estrofa]
C5 D5 E5
El tesoro que no ves
C5 D5 E5
La inocencia que no ves
C5 D5 E5 C5
Los milagros que van a estar de tu lado
C5 E5
Cuando comiences a leer
[Estrofa]
C5 D5 E5
de los labios y a ignorar
C5 D5 E
los embustes y gustar
C5 D5 E5 C5
Con tu lengua de las aguas que son dulces
C5
Aunque te sientas mal
[Estribillo]
G5 D5
Si no hay amor que no haya nada entonces, alma mía
D5 E5
¡No vas a regatear!
[Estrofa]
C5 D5 E5
Un hermoso día el de hoy
C5 D5 E5
Ay! Que bello día es hoy!
C5 D5 E5 C5
Esta para desatar nuestra tormenta
C5
Que va a tronar por el dolor
[Estrofa]
C5 D5 E5
Juegan a primero yo
C5 D5 E5
y después a también yo
C5 D5 E5 C5
Y a las migas para mi y cierran el juego
C5
porque ya saben que
[Estribillo]
G5 D5
El tonto nunca puede oler al diablo vida mía
D5
ni si caga en su nariz.
[Tablatura]
e|--3-2-----------------| |---10----|

B|------5-3-5-----------| |------8--|

G|----------------------| |---------|

D|----------------5--7--|x3 |---------|x6

A|----------------3--5--| |---------|

E|----------------------| |---------|

e|----------------| |---|

B|----------------| |---|

G|----------------| |-7-|

D|--10-9-7----7-9-|x2|-7-|

A|---------10-----| |-5-|

E|----------------| |---|

[Estrofa]
C5 D5 E5
Esa mancha que esta allí
C5 D5 E5
Por allí en el suelo allí
C5 D5 E5 C5
Y en tu bella cicatriz parece sangre
C5 E5
y sin embargo sonreís
[Estrofa]
C5 D5 E5
El tesoro que no ves
C5 D5 E5
La inocencia que no ves
C5 D5 E5 C5
El placer es tan oscuro como el culo
C5
de un topo negro
[Estribillo]
G5 D5
Si no hay amor que no haya nada entonces, alma mía
D5 E5
¡No vas a regatear!
[Outro]
C5 D5 E5
Placer que es cruel,
C5 D5 E5
sin lagrimas
C5
y el mundo allí nomás.
C5
El sol cocina lento
C5 D5 E5
Placer que es cruel
C5 D5 E5
sin lagrimas
C5
y el mundo allí nomás, sin vida
C5 E5
con tu sangre en el suelo
C5 D5 E5
Placer que es cruel,
C5 D5 E5
sin lagrimas
C5
y el mundo allí nomás.
C5
El sol cocina lento
C5 D5 E5
Placer que es cruel
C5 D5 E5
sin lagrimas
C5
y el mundo allí nomás, sin vida
C5 E5
con tu sangre en el suelo
Este sitio usa cookies