Miracles

Para añadir a una lista personal debes
ó

Jefferson Starship

Versión
estudio
publicado por
rainbow
Tono
A-
A+
Deslizar
A -> La
Video
Acordes
Traducción
	 
[Tablatura]
|-------------------------------------7--3-----|

B|-------------------------------------------5--|

G|----------------------------------------------|

D|-----2--------2--------2--------2-------------|

A|--0--------0--------0--------0----------------|

E|--------0-----------------0-------------------|

e|--(3)--7-7---3-3----------------------------3-|

B|------------------3-3--5-----------------5----|

G|--------------------------5--4--2--0--2-------|

D|----------------------------------------------|

A|----------------------------------------------|

E|----------------------------------------------|

e|--7-7-----------------------------------------|

B|--------3-3-----------------------------------|

G|--------------3-3---5-------------------------|

D|------------------------5--4---2---0---2------|

A|----------------------------------------------|

E|----------------------------------------------|

[Estribillo]
Am
If only you believe like I believe
G F
Baby like I believe we'd get by
Am
If only you believe in miracles
G F
Baby in miracles so would I
Am
If only you believe like I believe
G F
Baby like I believe we'd get by
Am
If only you believe in miracles
G F F G
Baby in miracles so would I
[Estrofa]
Am G Bm
I might have to move heaven and earth
To prove it to you baby
Am G Bm
So we’re makin’love and you feel the power
And I feel the power
Em F
Then there’s really nothing that we can’t do
Dm G
If we wanted to baby
Em F
We could exist on the stars
G E
It’d be so easy
F#m G
All we gotta do
C A
Is get a little faith in you
Am
Oh I’ve been so many places
G Bm
I’ve seen some things yes I have
I know that love is the answer yes it is
Am G
Keeps holding this world together
Bm
Ain’t nothing better ain’t nothing better
Em F
And all the answers to our prayers
Dm G
Hell it’s the same everywheres now baby
Em F
Nothing ever breaks up the heart
G E
Only tears give you away
F#m G
Then you’re right where I found ya
C A
With my arms around ya
Am G Bm
Oh baby baby baby love is a magic word yeah
Am G Bm
Few ever find in a lifetime
Em F
But from that very first look in your eyes
Dm G
I knew you and I had but one heart
Em F
Only our bodies were apart
G E
That was so easy so easy
F#m G
I had a taste of the real world
Just a drop of it
C A
When I went down on you girl
Don't ever stop it
[Estribillo]
Am
If only you believe like I believe
G F
Baby like I believe we'd get by
Am
If only you believe in miracles
G F
Baby in miracles so would I
Am
If only you believe like I believe
G F
Baby like I believe we'd get by
Am
If only you believe in miracles
G F F G
Baby in miracles so would I
[Estrofa]
Am G
I can hear windmills and rainbows
Bm
Whenever you’re talkin’to me
Am G
I feel like swirling and dancin’
Bm
Whenever you’re walking with me
Em F
You ripple like a river when I touch you girl
Dm G
When I pluck your body like a string
Em F
When I start dancin’ inside ya
G E
Oh baby you make me wanna sing
F#m G C A
Yeah baby baby baby oh baby
Am G
Oh yeah all right
Bm
Baby we’re sure doin’ it tonight
Am G
Everytime you come by let me try
Bm
Pretty please with sugar on it
That’s how I like it ooh
Em F
I can’t even believe it with you
Dm
It’s like having every dream
G
I ever wanted come true
Em
I picked up your vibes
F
You know it opened my eyes
G E
But I’m still dreamin’ yeah
F#m G
And you’re right where I found ya
C A
With my arms around ya
[Estribillo]
Am
If only you believe like I believe
G F
Baby like I believe we'd get by
Am
If only you believe in miracles
G F
Baby in miracles so would I
Am
If only you believe like I believe
G F
Baby like I believe we'd get by
Am
If only you believe in miracles
G Bm
Baby in miracles so would I
Em F Dm G
So would I
Em F G E F#m G C A
So would I
Am
If only you believe like I believe
G F
Baby like I believe we'd get by
Am
If only you believe in miracles
G F F G (Am)
Baby in miracles so would I