Cementerio club

Para añadir a una lista personal debes
ó

Pescado Rabioso

Versión
estudio
publicado por
iri
Tono
A-
A+
Deslizar
A -> La
Video
Acordes
	 
[Estrofa]
Gm7 Gm6
Justo que pensaba,
B7/9 (Riff)
en vos nena
[Riff]
B7 / 9 (# 9) B7 / 9
e | ------------ |

b | -3-2--0-2-2- |

g | -2-2--2-2-2- |

d | -1-1--1-1-1- |

a | -2-2--2-2-2- |

E | ------------ |

[Estrofa]
G7 F#​​m7 (Riff)
caí muerto
[Riff]
e|---4--2---2--|

b|--2-----5---2|

g|-2-----------|

d|-------------|

a|-------------|

E|-------------|

[Tablatura]
Puente
G7 F#m7

e|---------------------------|----------|

b|---------------------------|-----10---|

g|-----5--7-/9b10vv-9b10b9p7-|-9-------6|

d|-5-7-----------------------|----------|

a|---------------------------|----------|

E|---------------------------|----------|

x2

[Estrofa]
Gm7 Gm6
¿quién le dio,
B7/9 (Riff)
al pequeño Dios,
[Riff]
B7/9(#9) B7/9
e|------------|

b|-3-2--0-2-2-|

g|-2-2--2-2-2-|

d|-1-1--1-1-1-|

a|-2-2--2-2-2-|

E|------------|

[Estrofa]
G7 F#m7 (Riff)
el cetro gris del abismo?
[Riff]
e|-4--2---2--4-5|

b|------5-------|

g|--------------|

d|--------------|

a|--------------|

E|--------------|

[Riff]
G7 F#m G
e|------------------|---------|------------------|------------------|

b|------------------|---------|-----10-----------|------------------|

g|-----5--7-/9b10vv-|9b10b9p7-|-9-------6--------|-----5--7-/9b10vv-|

d|-5-7--------------|---------|------------9b11-7|-5-7--------------|

a|------------------|---------|------------------|------------------|

E|------------------|---------|------------------|------------------|

[Solo]
Bbm6 B7 E9 B7

e|------|--------------------------------|----------------------|---------|

b|------|------------------------12-12-12|12--12b14-10-12--10-12|---------|

g|-10vv-|--13-11-9-11-----9/11-8---------|---------------11-----|-9b11-9-7|

d|------|11----------11--9---------------|----------------------|9--------|

a|------|--------------------------------|----------------------|---------|

E|------|--------------------------------|----------------------|---------|

[Estribillo]
C#7/9 B7/9
Solo sé que no soy yo,
F#m7
a quien duerme...
C#7/9 B7/9
solo sé que no soy yo,
F#m7
a quien duerme...
[Riff]
A B F#m
e|----9------------|----9------------|---------|

b|-----10---8/9----|------10---8/9v--|-9p7p5-9-|

g|-9---------------|--9--------------|---------|

d|-----------------|-----------------|---------|

a|-----------------|-----------------|---------|

E|-----------------|-----------------|---------|

[Estrofa]
Gm7 Gm6
Oye dime nena
B7/9 (Riff)
¿adónde ves,
[Riff]
B7/9(#9) B7/9
e|------------|

b|-3-2--0-2-2-|

g|-2-2--2-2-2-|

d|-1-1--1-1-1-|

a|-2-2--2-2-2-|

E|------------|

[Estrofa]
G7 F#m7 (Riff)
ahora algo en mí,
que no detestes?
[Riff]
e|---4--2---2--|

b|--2-----5---2|

g|-2-----------|

d|-------------|

a|-------------|

E|-------------|

[Riff]
G7 F#m7 G7
e|------------------|-------------------------------|-----------------|

b|------------------|--------------10---------------|-----------------|

g|-----5--7-/9b10vv-|9b10b9p7--9-------6------------|----5--7-/9b10vv-|

d|-5-7--------------|---------------------9b119p7---|5-7--------------|

e|------------------|-----------------------------9-|-----------------|

e|------------------|-------------------------------|-----------------|

[Solo]
Bbm6 B7 E9

e|----|-------------------------|----------------------------------------|

b|----|-------------------------|---//15-14-12-10----//12----------------|

g|10vv|--13-11-9-11-------9/11-8|11---------------11-----14b16-14-11---–-|

d|----|11----------11--9-9------|-----------------------------------14-12|

A|----|-------------------------|----------------------------------------|

E|----|-------------------------|----------------------------------------|

B7

e|--------------------------|

b|--------------------------|

g|--------------------------|

d|--12-----------12-----12b-|

a|-----14----12------12-----|

E|--------------------------|

[Estrofa]
C#7/9 B7/9
Que solo y triste voy a estar,
F#m7
en este cementerio
C#7/9 B7/9
que calor hará sin vos,
F#m7
en verano
[Riff]
A B F#m
e|----9------------|----9------------|---------|

b|-----10---8/9----|------10---8/9v--|-9p7p5-9-|

g|-9---------------|--9--------------|---------|

d|-----------------|-----------------|---------|

a|-----------------|-----------------|---------|

E|-----------------|-----------------|---------|

4 veces

[Solo]
E9 B7 E9 B7 F#7 E9 B7 (x3)
Este sitio usa cookies