Sólo le pido a Dios

+ nueva lista

León Gieco

Versión
estudio
publicado por
iri
Tono
A-
A+
Deslizar
A -> La
Video
Acordes
	 
[Riff]
Em
e|------------------------------------|

b|------------------------------------|

g|------------------------------------|

D|------0-2-----------0-2-------------|

A|--0-2-----------0-2-----------------|

E|----------0-0-0---------0-0-0--0-2--|

[Estrofa]
G Cadd9 G
Sólo le pido a Dios
C Bm Am
Que el dolor no me sea indiferente
Bm G D
Que la reseca muerte no me encuentre
C B7 Em
Vacío y solo sin haber hecho lo suficiente.
[Riff]
Em

e|------------------------------------|

b|------------------------------------|

g|------------------------------------|

D|------0-2-----------0-2-------------|

A|--0-2-----------0-2-----------------|

E|----------0-0-0---------0-0-0--0-2--|

[Estrofa]
G Cadd9 G
Sólo le pido a Dios
C Bm Am
Que lo injusto no me sea indiferente
Bm G D
Que no me abofeten la otra mejilla
C B7 Em
Después de que una garra me arañó esta suerte.
[Puente]
Em
[Estrofa]
G Cadd9 G
Sólo le pido a Dios
C Bm Am
Que la guerra no me sea indiferente
Bm G D
Es un monstruo grande y pisa fuerte
C B7 Em
Toda la pobre inocencia de la gente
Bm G D
Es un monstruo grande y pisa fuerte
C B7 Em
Toda la pobre inocencia de la gente
[Solo]
G C G

C B7 Am D

C G D Em

C G D Em

Em

[Estrofa]
G Cadd9 G
Sólo le pido a Dios
C Bm Am
Que el engaño no me sea indiferente
Bm G D
Si un traidor puede más que unos cuantos
C B7 Em
Que esos cuantos no lo olviden fácilmente.
[Puente]
Em
[Estrofa]
G Cadd9 G
Sólo le pido a Dios
C Bm Am
Que el futuro no me sea indiferente
Bm G D
Desahuciado está el que tiene que marchar
C B7 Em
A vivir una cultura diferente.
[Puente]
Em
[Estrofa]
G Cadd9 G
Sólo le pido a Dios
C Bm Am
Que la guerra no me sea indiferente
Bm G D
Es un monstruo grande y pisa fuerte
C B7 Em
Toda la pobre inocencia de la gente
Bm G D
Es un monstruo grande y pisa fuerte
C B7 Em
Toda la pobre inocencia de la gente
[Solo]
G C G

C Bm Am D

C G D Em

C G D Em

G

Este sitio usa cookies