Me hice cargo de tu luz

Para añadir a una lista personal debes
ó

Lisandro Aristimuño

Versión
acústica
publicado por
iri
Tono
A-
A+
Deslizar
A -> La
Video
Acordes
	 
[Riff]
E E Bsus4/F# B7/F#

e|----------------------|----------------------|----------------------|

B|---------9------------|---------9------------|----------------------|

G|----9---------9---9---|----9---------9---9---|-----9---------8------|

D|----------------------|----------------------|--------7---------7---|

A|--7---7---------7-----|--7---7---------7-----|--9--------9---------9|

E|----------------------|----------------------|----------------------|

C#m Asus2 Asus2 B/A E

e|----------------------|---------------0------|--------------------0-|

B|-------5--------------|------------0--0------|-----------0------0---|

G|----6-----6-----6-----|--------2-------------|--------2-------4-----|

D|----------------------|------2---------------|------2-------4-------|

A|--4----------4--------|--0-------------------|--0-------------------|

E|----------------------|----------------------|----------------------|

E

e|--------------0-------|

B|--0-----------0-------|

G|--1---1-2-1-2---------|

D|--2-------------------|

A|--2-------------------|

E|--0-------------------|


Todo dos veces

El Riff se mantiene durante toda la canción, sin embargo puede tocarse arpegiando los acordes. Está sacada lo más fielmente posible, pero puede mejorarse.
[Intro]
| E | E | Bsus4/F# B7/F# | C#m | Asus2 | Asus2 B/A | E | x2


[Estrofa]
E E Bsus4/F# B7/F# C#m
Me hice cargo de tu luz
Asus2 B/A E E4 E E4
Que desde afuera es tan hermosa
E E Bsus4/F# B7/F# C#m
Me vi hundido en lo azul
Asus2 B/A E E4 E E4
De todo el cielo de Mendoza
E E Bsus4/F# B7/F# C#m
Seguí la ruta y caminé
Asus2 B/A E E4 E E4
Cantando a punto de caer
[Estribillo]
C#m Cm7/b5
Me hice imagen de tu cruz
D#m7/b5 C#m
Cortando todo el viento zonda
Asus2 E B7
Tu noche apareció preciosa
F#m C#m
Y el día se mostró sin fin,
Cm7/b5 - D#m7/b5 - F#m7/b5 - A#m7/b5
sin fin
[Estrofa]
E E Bsus4/F# B7/F# C#m
Me hice cargo por mirar
Asus2 B/A E E4 E E4
Colores de tu piel tan rosa
C#m Cm7/b5
Es duro olvidarme de vos
D#m7/b5 C#m
En este trampolín de rocas
Asus2 E B7
Igual me quedo con tu boca
F#m C#m
Que sabe derretir dolor,
Cm7/b5 - D#m7/b5 - F#m7/b5 - A#m7/b5
dolor
[Riff]
E E7 E E7

e|--------------|--------------|--------------|--------------|

B|---------9----|--------------|---------9----|--------------|

G|----9---------|----9---8-----|----9---------|----9---8-----|

D|--------------|--------------|--------------|--------------|

A|--7---7-------|--7---7-------|--7---7-------|--7---7-------|

E|--------------|--------------|--------------|--------------|

[Estrofa]
E E Bsus4/F# B7/F# C#m
Fue necesaria tanta luz
Asus2 B/A E E4 E E4
Para poder seguir tu sombra
C#m Cm7/b5
Me hice imagen de tu cruz
D#m7/b5 C#m
Cortando todo el viento zonda
Asus2 E B7
Tu noche apareció preciosa
F#m C#m
Y el día se mostró sin fin,
Cm7/b5 - D#m7/b5 - F#m7/b5 - A#m7/b5
sin fin
[Riff]
E B/E E E7

e|---------------|--------------|---------------|--------------|

B|--------9------|--------7-----|--------9------|--------7-----|

G|------9----9---|------8---8---|------9----9---|------8---8---|

D|----9--------9-|----9-------9-|----9--------9-|----9-------9-|

A|--7------------|--7-----------|--7------------|--7-----------|

E|---------------|--------------|---------------|--------------|

[Estrofa]
E B/E E - B/E
Me hice cargo de tu luz
E B/E E
Me hice cargo de tu luuuuuz
Este sitio usa cookies