Tu nombre y el mio

Para añadir a una lista personal debes
ó

Lisandro Aristimuño

Versión
estudio
publicado por
iri
Tono
A-
A+
Deslizar
A -> La
Video
Acordes
	 
[Riff]
B5 Gmaj7/b5

e|-------------|-------------|

B|-------0-----|-------2-----|

G|-----4-------|-----4-------|

D|---4---------|---4---------|

A|-2-----------|-------------|

E|-------------|-3-----------|

Todo 6 veces


Se mantiene durante las estrofas.

La guitarra entra en la 3ra vuelta, pero si quieren hace los mismos acordes que el sintetizador, podrian empezar desde el inicio haciendo INTRO: B5 - Gmaj7/b5
[Intro]
B5 - Gmaj7-5 (x6)
[Estrofa]
B5 Gmaj7-5
Hoy se respira viento sur
B5 Gmaj7-5
ese que nace del frío
Em D Amaj F#maj
horno de barro calienta el sol
G F# Bm
de los lugares perdidos.
[Estrofa]
B5 Gmaj7-5
Vuelve la calma de tu voz
B5 Gmaj7-5
con la corriente del río
Em D Amaj F#maj
manto de cielo sobre el tendal
G F# Bm
teje tu nombre y el mío.
[Estribillo]
D A G D
Campo de colores se cubren en tu luz
Em D Amaj
deja la lluvia caer
D A G
riega los suelos del sur
F# G - Em - F#maj - F# - Bm
moja la nueva cosecha que vendrá.
[Riff]
B5 Gmaj7/b5

e|-------------|-------------|

B|-------0-----|-------2-----|

G|-----4-------|-----4-------|

D|---4---------|---4---------|

A|-2-----------|-------------|

E|-------------|-3-----------|

Todo 2 veces

[Estrofa]
B5 Gmaj7-5
Tu cuerpo calma mi dolor
B5 Gmaj7-5
y se dibuja el camino
Em D Amaj F#maj
mantra de cielo sobre el tendal
G F# Bm
teje tu nombre y el mío.
[Estrofa]
B5 Gmaj7-5
Hoy se respira viento sur
B5 Gmaj7-5
ese que nace del frío
Em D Amaj F#maj
horno de barro calienta el sol
G F# Bm
de los lugares perdidos.
[Estribillo]
D A G D
Campo de colores se cubren en tu luz
Em D Amaj
deja la lluvia caer
D A G
riega los suelos del sur
F# G - Em - F#maj - F# - Bm
moja la nueva cosecha que vendrá.
[Outro]
B5 - Gmaj7-5 (x8) Utilizando el Riff
[Riff]
B5 Gmaj7/b5

e|-------------|-------------|

B|-------0-----|-------2-----|

G|-----4-------|-----4-------|

D|---4---------|---4---------|

A|-2-----------|-------------|

E|-------------|-3-----------|

Todo 8 veces (Outro)

Este sitio usa cookies