Calaveras Y Diablitos

Para añadir a una lista personal debes
ó

Los Fabulosos Cadillacs

Versión
estudio
publicado por
iri
Tono
A-
A+
Deslizar
A -> La
Video
Acordes
	 
[Intro]
e|--------|--------|-----|--------|---------|

b|--------|--------|-----|--------|---------|

g|--------|--------|-----|--------|---------|

D|------7-|----4-7-|---6-|------7-|-3-5-3-2-|x2

A|-4--7---|-5------|-7---|-4--7---|---------|

E|--------|--------|-----|--------|---------|

A Bm E

e|-----------------------------------|

b|---5-5-5-5---7--5--7--(7)/--9--7---|

g|---6-6-6-6---7--6--7--(7)/--9--7---|

D|-----------------------------------|

A|-----------------------------------|

E|-----------------------------------|

A Bm E
e|----------------------------|-------------------7--|

b|--5-5-5-5---7--5--7--9--10--|--7--(7)/10--7---9----|

g|--6-6-6-6---7--6--7--9---9--|---------------7------|

D|----------------------------|----------------------|

A|----------------------------|----------------------|

E|----------------------------|----------------------|

[Intro]
[A - A - Bm - E] x4
[Estrofa]
A A/F#
Yo a vos no te creo nada
Bm E
Cómo vos vas a creer en mi?
A
Universo de tierra y agua
Bm E
me alejan de vos
A A/F#
Las tumbas son para los muertos
Bm E
Las flores para sentirse bien
A A
La vida es para gozarla
Bm E
La vida es para vivirla mejor
[Puente]
A Bm E
Uuuuuh uuh uh uh
A Bm E
Uuuuuuh uuuh uuh uuuh
[Estribillo]
A Bm E
Calaveras y diablitos, iepi iepi
A Bm E
Calaveras y diablitos, iepi
A Bm E A Bm E
Calaveras y diablitos, invaden mi corazón uuh uuuuuh
A Bm E
Calaveras y diablitos, iepi iepi
A Bm E
Calaveras y diablitos,
A Bm E A A7
Calaveras y diablitos....invaden mi corazón
[Puente]
D
No quiero morir sin antes haber amado,
A
pero tampoco quiero morir de amor
D
Calaveras y diablitos
B E
Invaden mi corazón
[Puente]
[A - A - Bm - E] x4
[Estrofa]
A A/F#
Yo a vos no te creo nada
Bm E
Cómo vos vas a creer en mi?
A
Universo de tierra y agua
A A/F#
Las tumbas son para los muertos
Bm E
Las flores para sentirse bien
A A/F#
La vida es para gozarla
Bm E
La vida es para vivirla mejor
[Puente]
[A - A - Bm - E] x4
[Estrofa]
A Bm E
Calaveras y diablitos....
A A Bm E
Uuuuh uh uh uuuh
A A Bm E
aah aaaaaah
A Bm E
Calaveras y diablitos....
A Bm E
Calaveras y diablitos
A Bm E A
Calaveras y diablitos, invaden mi corazón
A A Bm E
A Bm E
Calaveras y diablitos
Este sitio usa cookies