Padre nuestro

Para añadir a una lista personal debes
ó

Los Fabulosos Cadillacs

Versión
estudio
publicado por
iri
Tono
A-
A+
Deslizar
A -> La
Video
Acordes
	 
[Intro]
e|----------------------------| |-----------------------------------|

b|-----7/8-8-8-8-8-8--8-7-----| |--19-21-21-21-21-21-21--21-19------|

g|-7/9--------------------7-9-| |-----------------------------19-21-|

D|----------------------------|x2|-----------------------------------|x2

A|----------------------------| |-----------------------------------|

E|----------------------------| |-----------------------------------|

e|-----------| |------------|----------------------------|

b|-8-8-7-----| |------------|---8------7-----------------|

g|-------7-9-| |-9-9-7---9--|-9---9--7---7--7-5-7--7-8-9-|

D|-----------|X4|-------9----|----------------------------|

A|-----------| |------------|----------------------------|

E|-----------| |------------|----------------------------|


e|-------7-12--12-12---------|

b|----8--------------12------|

g|-9--------------------12--9|

D|---------------------------|

A|---------------------------|

E|---------------------------|

[Intro]
Em
[Estrofa]
Em B7
Me estás consumiendo, me estás malgastando
B7 Em
me estás desesperando y yo me arrodillo por vos
Em B7
me estás confundiendo me estás caminando
B7 Em E7
y estás resecando, ay señor, mi corazón.
[Estribillo]
Am
Quiero ver amanecer,
Em
pero del otro lado ver amanecer
B7 Em E7
pero que alguien se quede aquí para saber si yo sigo vivo
Am
Quiero ver amanecer,
Em
pero del otro lado ver amanecer
B7 Em
pero que alguien se quede aquí para saber si yo sigo vivo
[Puente]
Em
[Estrofa]
Em B7
Tengo el alma escapada, la consciencia mareada
B7 Em
mi vida está tan cansada, de buscar tu perdón
Em B7
vengo volando muy bajo, buscando algún claro donde descansar
B7 Em
es que me vengo bandeando, me estoy cayendo,
E7
de tanto esperar.
[Estribillo]
Am
Quiero ver amanecer,
Em
pero del otro lado ver amanecer
B7 Em E7
pero que alguien se quede aquí para saber si yo sigo vivo
Am
Quiero ver amanecer,
Em
pero del otro lado ver amanecer
B7 Em
pero que alguien se quede aquí para saber si yo sigo vivo
[Puente]
Em B7
Cielo bonito devuelve mi alma, cielito yo te pido otra oportunidad
Am Em
cielo no me hundas, no me desmorones cielito no me dejes sin saber la verdad
Em B7
Cielo bonito devuelve mi alma, cielito yo te pido otra oportunidad
Am Em
cielo no me hundas, no me desmorones cielito no me dejes sin saber la verdad.
[Estribillo]
Am
Quiero ver amanecer,
Em
pero del otro lado ver amanecer
B7 Em
pero que alguien se quede aquí para saber si yo sigo vivo
Am
Quiero ver amanecer,
Em
pero del otro lado ver amanecer
B7 Em
pero que alguien se quede aquí para saber si yo sigo vivo
[Intro]
e|----------------------------| |-----------------------------------|

b|-----7/8-8-8-8-8-8--8-7-----| |--19-21-21-21-21-21-21--21-19------|

g|-7/9--------------------7-9-| |-----------------------------19-21-|

D|----------------------------|x2|-----------------------------------|

A|----------------------------| |-----------------------------------|

E|----------------------------| |-----------------------------------|

[Puente]
Em B7
me escape de mi casa, me escape de mi amor
Am Em
pero nadie se escapa de tu mano señor.
[Estribillo]
Am
Quiero ver amanecer,
Em
pero del otro lado ver amanecer
B7 Em
pero que alguien se quede aquí para saber si yo sigo vivo
Am
Quiero ver amanecer,
Em
pero del otro lado ver amanecer
B7 Em E7
pero que alguien se quede aquí para saber si yo sigo vivo.
[Estribillo]
Am Em
Lai la rai la laaaaa, la ra la la la
B7 Em E7
la ra la la la, lai la ra la laaaaa
Am
(Lai la ra ) Por eso quiero ver amanecer
Em
pero del otro lado ver amanecer
B7 Em
pero que alguien se quede aquí para saber si yo sigo vivo.
[Outro]
Em
Este sitio usa cookies