Me Estás Atrapando Otra Vez

Para añadir a una lista personal debes
ó

Los Rodríguez

Versión
estudio
publicado por
iri
Tono
A-
A+
Deslizar
A -> La
Video
Acordes
	 
[Intro]
e|-----------------------------------------------------------------|

b|--10br-----------------------------------------------------------|

g|-------9h10p9/7-------------9br-7-9~~~----9br-7------------------|

D|----------------9~~~~~----7-------------7--------9~~~~----/7-----| A|-------------------------------------------------------------5---|

E|---------------------------------------------------------------7-|


e|----------------------------------------------------------------|

b|--------12-15-17-17br-------------------------------------------|

g|--12-14----------------17-16------------------------------------|

D|-----------------------------15p14-12-14-14b-14-12----12~~~~~~~-|

A|---------------------------------------------------14-----------|

E|----------------------------------------------------------------|


e|-------------------------------------------|

b|-------------------------------------------|

g|----------7~~~-----------------------------|

D|---/5-7-9------------------14b-12-14~~~~~~-|

A|---------------10--7~~~--------------------|

E|-------------------------------------------|

[Intro]
[D - F#m - Bm - A

[D - F#m - Bm - Em7 - Asus4 A]

[Estrofa]
D F#m Bm A
Me despierto pensando
D F#m Bm A
si hoy te voy a ver
D F#m Bm
pero es inútil negarlo,
Em Asus4 A
tu me estás atrapando otra vez.
[Estrofa]
D F#m Bm A
Eres un ángel maldito,
D F#m Bm A
eres la dama mas cruel
D F#m Bm
un arma de doble filo.
Em7 Asus4 A
Contigo solo puedo perder
Em Asus4 A
tu me estás atrapando otra vez.
[Estribillo]
G D/F#
Aunque alguien me advirtió
Em7
nunca dije que no.
G F#7 Em7
Ahora tengo que esconder las heridas.
G F#m Bm
Ese pulso que jugué porque quise lo perdí,
Em7 A7sus4 D
nunca me podré alejar de ti.
[Estrofa]
D F#m Bm A
Te extraño, cuando llega la noche
D F#m Bm A
pero te odio de día.
D F#m Bm
Después me subo a tu coche,
Em Asus4 A
y dejo pasar la vida.
[Estrofa]
D F#m Bm A
Debería dejarte,
D F#m Bm A
irme lejos no volver.
D F#m Bm
pero es inutil negarlo,
Em Asus4 A
tu me estás atrapando otra vez.
Em A
contigo solo puedo perder.
[Estribillo]
G D/F#
Aunque alguien me advirtió
Em7
nunca dije que no
G F#7 Em7
y ahora tengo que esconder las heridas
G F#m Bm
Y ese pulso que jugué porque quise lo perdí,
Em7 A7sus4 D
nunca me podré alejar de ti.
Em7 A7sus4 D
nunca me podré alejar de ti.
[Solo]
[D - F#m - Bm - A]x2

D - F#m - Bm

Em7 - Asus4 A

[D - F#m - Bm - A]x2

D - F#m - Bm

[Puente]
Em7 A7sus4 D [C B7]
nunca me podré alejar de ti
Em7 A7sus4 D [C B7]
nunca me podré alejar de ti
Em7
nunca me podré alejar de ti
D F#m Bm A
uuh uuh
D F#m Bm A
de ti, de ti, de ti
D F#m Bm A
[Outro]
D - F#m - Bm - A
Este sitio usa cookies