Sin documentos

Para añadir a una lista personal debes
ó

Los Rodríguez

Versión
estudio
publicado por
iri
Tono
A-
A+
Deslizar
A -> La
Video
Acordes
	 
[Intro]
e|---------------------------|--------------------------|

B|---------------------------|--------------------------|

g|--7-7-7-7-8-7------------7-|-7-7-7-7-8-7------------7-|

D|--------------8--------8---|-------------7--------7---|

A|-----------------10--------|----------------9---------|

E|---------------------------|--------------------------|

e|----------------------------------------------------|

B|----------------------------------------------------|

G|-7-7--10-8-7---5-7-5---3-5-3----3-2-2-2------8--7v--|

D|----------------------------------------------------|

A|----------------------------------------------------|

E|----------------------------------------------------|


[Estrofa]
Gm D
Déjame atravesar el viento sin documentos,
Eb D
que lo haré por el tiempo que tuvimos
Gm D
Porque no queda salida, porque pareces... dormida,
Eb D
porque buscando tu sonrisa estaría toda mi vida.
[Puente]
Eb D
Quiero ser el único que te muerda en la boca.
Eb D
Quiero saber que la vida contigo no va a terminar.
[Estrofa]
Gm D
Déjame que te cierre esta noche los ojos,
Eb D
y mañana vendré con un cigarro a la cama.
Gm D
Porque no tengo más intenciones que seguir
Eb D
bebiendo de esta copa que no está tan rota.
[Puente]
Eb D
Quiero ser el único que te muerda en la boca.
Eb D
Quiero saber que la vida contigo no va a terminar.
[Estribillo]
Gm
Porque sí, porque sí, porque sí!
D
Porque en esta vida
Eb D
no quiero pasar más de un día entero sin tí.
Gm
Porque sí, porque sí, porque sí!
D
Porque mientras espero
Eb D
por ti me muero y no quiero seguir así. Uh Uh
[Intro]
e|---------------------------|--------------------------|

b|---------------------------|--------------------------|

g|--7-7-7-7-8-7------------7-|-7-7-7-7-8-7------------7-|

D|--------------8--------8---|-------------7--------7---|

A|-----------------10--------|----------------9---------|

E|---------------------------|--------------------------|

e|----------------------------------------------------|

b|----------------------------------------------------|

g|-7-7--10-8-7---5-7-5---3-5-3----3-2-2-2------8--7v--|

D|----------------------------------------------------|

A|----------------------------------------------------|

E|----------------------------------------------------|


[Estrofa]
Gm D
Déjame atravesar el viento sin documentos,
Eb D
que lo haré por el tiempo que tuvimos
Gm D
Porque no queda salida, porque pareces... dormida,
Eb D
porque buscando tu sonrisa estaría toda mi vida.
[Puente]
Eb D
Quiero ser el único que te muerda en la boca.
Eb D
Quiero saber que la vida contigo no va a terminar.
[Estribillo]
Gm
Porque sí, porque sí, porque sí!
D
Porque en esta vida
Eb D
no quiero pasar más de un día entero sin tí.
Gm
Porque sí, porque sí, porque sí!
D
Porque mientras espero
Eb D
por ti me muero y no quiero seguir así.
[Solo]
[Gm D Eb D]x8
[Puente]
Eb D
Quiero ser el único que te muerda en la boca.
Eb D
Quiero saber que la vida contigo no va a terminar.
Eb D
Ay Quiero ser el único que te muerda en la boca.
Eb D
Quiero saber que la vida contigo no va a terminar.
[Estribillo]
Gm
Porque siiii...
D
Porque en esta vida
Eb D
no quiero pasar más de un día entero sin tí.
Gm
Porque sí (porque si)
D
Porque mientras espero
Eb D
por ti me muero y no quiero seguir así.
[Intro]
e|---------------------------|--------------------------|

b|---------------------------|--------------------------|

g|--7-7-7-7-8-7------------7-|-7-7-7-7-8-7------------7-|

D|--------------8--------8---|-------------7--------7---|

A|-----------------10--------|----------------9---------|

E|---------------------------|--------------------------|

e|----------------------------------------------------|

b|----------------------------------------------------|

g|-7-7--10-8-7---5-7-5---3-5-3----3-2-2-2------8--7v--|

D|----------------------------------------------------|

A|----------------------------------------------------|

E|----------------------------------------------------|

[Outro]
Gm - Gm - Gm
Este sitio usa cookies