Campanas en la noche

Para añadir a una lista personal debes
ó

Los Tipitos

Versión
estudio
publicado por
iri
Tono
A-
A+
Deslizar
A -> La
Video
Acordes
	 
[Riff]
Em C D G
e|------------------------------------------|---------------------------------------------|

B|------------------------------------------|---------------------------------------------|

G|------------------------------------------|---------------------------------------------|

D|-5-4---------5-4-5-4--5-4---------5-4-5-4-|-5-4---------4/5-4-5-4-------------4---------|

A|-2-2-2222222-2-2-2-2--3-3-3333333-3-3-3-3-|-5-5-5555555-5---5-5-5--5----------2-2222222-|

E|------------------------------------------|------------------------3-3333333------------|

[Intro]
[Em - C - D - G] x2
[Estrofa]
Em C
Un hombre de frente a una ventana
D
Súper lucida la mirada
G
Recorre el paisaje y no
B7 Em
No es su interior es luna
C
Son sombras lejanas del bosque
D
Es algo raro en las estrellas
G
Sonidos que inducen temor
B7 C
Y también melancolía de esperar,
D
De esperar.
[Estribillo]
E
Que esperan que ella vuelva
Am D
Y le diga: aca estoy mi amor
Bm C
No existe el olvido
D E
Aca estoy mi amor de vuelta
Am D
He venido, ¿lo puedes creer?
Bm C
No existe el olvido mi amor
D
No existe...
[Estrofa]
Em C
Su mente inquieta se puebla de historias
D
Su cuerpo es solo memoria
G
Es eso que hay que sentir
B Em
Con paciencia infinita
C
Andando las calles ajenas
D
De hombres que al fin le dan pena
G
Campanas en la noche
B C
Ruidos de melancolía de esperar
D
¿Qué esperar?
[Estribillo]
E
Esperar que ella vuelva
Am D
Y le diga acá estoy mi amor
B C
No existe el olvido
D E
Acá estoy mi amor de vuelta
Am
He vencido
D
No puedes creer
B C
No existe el olvido mi amor
D
No existe.
[Solo]
E E D E D E Bb A A G E E D E D E Bb A A G
e|-------------------------------------------|--------- ---------------------------------------------------------------|

b|-------------------------------------------|---------------------------- ----------------------15-15-15-15-15-15-15\-|

g|-12-14br--12----12-12----12-------12----12-|-/12--14br(14)p12--14br(14)p12--14br(14)p12---14b------------------------|

D|--------------14-------14----14-14----14---|----------------------------- -------------------------------------------|

A|-------------------------------------------|--------------------------- ---------------------------------------------|

E|-------------------------------------------|-------------------------------------------------------------------------|

E D E D E Bb A A G
e|-------------------------------------- |

b|-------15b---------------------------- |

g|---/16-------14--12-----9--7--------0- |

D|-------------14--12-----9--7--------2- |

A|------------------------------------2- |

E|--------------------------------------|

[Estrofa]
Em C
Delirio tremendo, ficción literaria
D
Secretos que fueron plegaria
G
Espejo maldito que al fin
B Em
Duplicó toda su vida
C
Andando las calles ajenas
D
De hombres que al fin le dan pena
G
Campanas en la noche
B C
Ruidos de melancolía de esperar
D
¿Qué esperar?
[Estribillo]
E
Esperar que ella vuelva
Am D
Y le diga acá estoy mi amor
B C
No existe el olvido
D E
Acá estoy mi amor de vuelta
Am
He vencido
D
Lo puedes creer
B C
No existe el olvido mi amor
D Em
No existe
[Solo]
E E D E D E Bb A A G E E D E D E Bb A A G E
e|-----------------------------------------------------------|----------------------------------------------------------|

b|-------------------------------------------------13-----12-|----------------------------------------------------------|

g|-12-14br--12----12-12----12-------12----12---7/9----9/7----|----------------------------------------2/4---2p0---------|

D|-------------14-------14----14-14----14--------------------|-5-7br-5-7br--5-7b-7-5---0-0-0-0-------------------2p0~~--|

A|-----------------------------------------------------------|----------------------------------5h7---------------------|

E|-----------------------------------------------------------|----------------------------------------------------------|

Este sitio usa cookies