The Man Who Sold The World

Para añadir a una lista personal debes
ó

Nirvana

Versión
estudio
publicado por
iri
Tono
A-
A+
Deslizar
A -> La
Video
Acordes
Traducción
	 
[Riff]
A
E|----------------------------------------------------|

B|----------------------------------------------------|

G|-1--1--1------1h2p1---------------------------------| (5x)

D|----------4----------4------------------------------|

A|----------------------------------------------------|

E|----------------------------------------------------|

E|----------------------------------------------------|

B|----------------------------------------------------|

G|-1--1--1------1h2p1-----1---------------------------|

D|----------4----------4------------------------------|

A|----------------------------------------------------|

E|----------------------------------------------------|

[Intro]
A Dm F Dm
[Estrofa]
A Dm
We passed upon the stair, we spoke in was and when
A A7 F
Although I wasn't there, he said I was his friend
C A
Which came as a surprise, I spoke into his eyes
Dm C
I thought you died alone, a long long time ago
[Estribillo]
C F
Oh no, not me
C# F
I never lost control
C F
You're face to face
C#
With The Man Who Sold The World
[Riff]
E|----------------------------------------------------|

B|----------------------------------------------------|

G|-1--1--1------1h2p1---------------------------------|

D|----------4----------4------------------------------|

A|----------------------------------------------------|

E|----------------------------------------------------| x5

[Estrofa]
A Dm
I laughed and shook his hand, and made my way back home
A A7 F
I searched for a foreign land, for years and years I roamed
C A
I gazed a gazeless stare, we walked a million hills
Dm C
I must have died alone, a long long time ago.
[Estribillo]
C F
Who knows? Not me
C# F
We never lost control
C F
You're face to face
C#
With The Man Who Sold The World
[Riff]
E|----------------------------------------------------|

B|----------------------------------------------------|

G|-1--1--1------1h2p1---------------------------------|

D|----------4----------4------------------------------|

A|----------------------------------------------------|

E|----------------------------------------------------| x4

[Estribillo]
C F
Who knows? Not me
C# F
We never lost control
C F
You're face to face
C#
With The Man Who Sold The World
[Riff]
E|----------------------------------------------------|

B|----------------------------------------------------|

G|-1--1--1------1h2p1---------------------------------|

D|----------4----------4------------------------------|

A|----------------------------------------------------|

E|----------------------------------------------------| x4

[Solo]
e|----------------------------------------------------| ----------------------------------------------------|

b|----------------------------------------------------| ----------------------------------------------------|

g|-7/9/8----8--8----8--8--8--8----8--8----8--8--8-----| -1--1--1------1h2p1-----1--1--1---------------------|

D|----------------------------------------------------| ----------4----------4-----------4------------------|

A|----------------------------------------------------| ----------------------------------------------------|

E|----------------------------------------------------|----------------------------------------------------|

e|----------------------------------------------------| ----------------------------------------------------|

b|----------------------------------------------------| ----------------------------------------------------|

g|-1/9----9--9----9--9--9--9----9--9----9--9\8--8\6---| -6----6--6--6--6----6--6----6--6--6---6/8-----------|

D|----------------------------------------------------| ----------------------------------------------------|

A|----------------------------------------------------| ----------------------------------------------------|

E|----------------------------------------------------|----------------------------------------------------|

e|----------------------------------------------------| ----------------------------------------------------|

b|----------------------------------------------------| ----------------------------------------------------|

g|-8--8----8--8--8--8----8--8----8--8--8--------------| -1--1--1------1h2p1-----1--1--1---------------------|

D|----------------------------------------------------|----------4----------4-----------4------------------|

E|----------------------------------------------------|----------------------------------------------------|

e|----------------------------------------------------| ----------------------------------------------------|

b|----------------------------------------------------| ----------------------------------------------------|

g|-1/9----9--9----9--9--9--9----9--9----9--9\11--8-6--| -6----6--6--6--6----6--6----6--6--6---6/8-----------|

D|----------------------------------------------------| ----------------------------------------------------|

A|----------------------------------------------------| ----------------------------------------------------|

E|----------------------------------------------------|----------------------------------------------------|

e|----------------------------------------------------| ----------------------------------------------------|

b|----------------------------------------------------| ----------------------------------------------------|

g|-8--8----8--8--8--8----8--8----8--8--8--------------| -1--1--1------1h2p1---------------------------------|

D|----------------------------------------------------| ----------4----------4------------------------------|

A|----------------------------------------------------| ----------------------------------------------------|

E|----------------------------------------------------|----------------------------------------------------|

e|----------------------------------------------------|

b|----------------------------------------------------|

g|-1--1--1------1h2p1-----1---------------------------|

D|----------4----------4------------------------------|

A|----------------------------------------------------|

E|----------------------------------------------------|

Este sitio usa cookies