A primera vista

Para añadir a una lista personal debes
ó

Pedro Aznar

Versión
estudio
publicado por
iri
Tono
A-
A+
Deslizar
A -> La
Video
Acordes
	 
[Tablatura]
C G#º Am F#º)

e|-------0-----------------------------------------------|

b|---------1--------3-------------1-------------1--------|

g|----0----------------4------------2---------2----2---2-|

D|----------------3------3-----2------------1--------1---|

E|----------3--4----------------------3--2---------------|

F F#º

e|-----------------------------------------------------------|

b|-------1---------1---------------------------1-------------|

g|---------2-------------2-------------2-------------2-------|

D|------------3-------------3-------1-----1-------------1----|

A|----3------------------------------------------------------|

E|-1------------1-----1--------1--2----------2-----1-------1-|

G

e|---------------------/-------|

b|------0-----1p0---1p-/-------|

g|---------0------0---0/-------|

D|---0-----------------/-------|

A|---------------------/-2-(3)-|

E|-3-------------------/-------|

[Intro]
[C - G#º - Am - F#º - F - F#º - G]
[Estrofa]
C G#º Am F#º
Cuando no tenía nada deseé, cuando todo era ausencia esperé,
F F#º G
cuando tuve frío temblé, cuando tuve coraje llamé.
C G#º Am F#º
Cuando llegó carta la abrí, cuando escuché a Prince bailé,
F F#º G
cuando el ojo brilló entendí, cuando me crecieron alas volé.
C G#º Am F#º
Cuando me llamó allá fui, cuando me di cuenta estaba ahí,
F F#º G#º
cuando te encontré me perdí, en cuanto te vi me enamoré...
Am - Am/G# - Am/G - F#m7/b5 F
Amara záia zoê, záia, záia
F#m7/b5 G
A hin hingá do hanhan
C G#m7/b5 Am F#m7/b5 F
Ooooooooooohhh Amarazáia zoê, záia, záia
Fm7/b5 G
A hin hingá do hanhan.
[Puente]
C - G#º - Am - F#º - F - F#º - G
[Estrofa]
C G#m7/b5 Am F#m7/b5
Cuando llegó carta la abrí, cuando oí a Salif Keita bailé,
F F#m7/b5 G
cuando el ojo brilló entendí, cuando me crecieron alas volé.
C G#m7/b5 Am F#m7/b5
Cuando me llamó allá fui, cuando me di cuenta estaba ahí,
F F#m7/b5 G#m7/b5
cuando te encontré me perdí, en cuanto te vi me enamoré.
Am - Am/G# - Am/G - F#m7/b5 F
Amara záia zoê, záia, záia
F#m7/b5 G
A hin hingá do hanhan
C G#m7/b5 Am F#m7/b5 F
Ooooooooooohhh Amarazáia zoê, záia, záia
Fm7/b5 G
A hin hingá do hanhan
C G#m7/b5 Am F#m7/b5 F
Ooooooooooohhh Amarazáia zoê, záia, záia
Fm7/b5 G
A hin hingá do hanhan.
C G#m7/b5 Am F#m7/b5 F
Ooooooooooohhh Amarazáia zoê, záia, záia
Este sitio usa cookies