Pasajera en Trance

Para añadir a una lista personal debes
ó

Pedro Aznar

Versión
estudio
publicado por
iri
Tono
A-
A+
Deslizar
A -> La
Video
Acordes
	 
acordes:

Dm7 x57565

F 133211

G 320003

Dsus4 xx0233

Am x02210

D xx0232

Gadd11 320013

Fsus2 xx3011

[Tablatura]
Dm7 F G Dm7 F G Dm7 F G
e|-------------------------------------------------------------------------|

b|-17-13-15---13-15--17-13-15--13-13-15-13--17-13-15--13-17-15--12-10-8----|

g|---------14----------------14---------------------14---------------------|

D|-------------------------------------------------------------------------|x2

A|-------------------------------------------------------------------------|

E|-------------------------------------------------------------------------|

Dm7 F G Dm7 F G
e|---------------------------15-15-13-12-13-12-----15----------------------|

b|13-12-13-12-13-13-12--12-15-----------------13-12------------------------|

g|-------------------------------------------------------------------------|

D|-------------------------------------------------------------------------|

A|-------------------------------------------------------------------------|

E|-------------------------------------------------------------------------|

Dm7 F G
e|---------------------------15-15-----------------------------------------|

b|13-12-13-12-13-13-12--12-15----------------------------------------------|

g|-------------------------------------------------------------------------|

D|-------------------------------------------------------------------------|

A|-------------------------------------------------------------------------|

E|-------------------------------------------------------------------------|

[Intro]
[Estrofa]
F Am G
Ella esta por embarcar
Dm7 F G
quizás consiga un pasaje en la borda.
F Am G
Ella esta por despegar
Dsus4
ella se va.
F Am G
Ella viaja sin parar,
Dm7 F G
el viejo truco de andar por las sombras.
F Am G
Ella baila sobre el mar,
Dsus4
ella se va.
[Estribillo]
D
Pasajera en trance,
Gadd11 Fsus2 Dsus4
pasajera en tránsito perpetuo.
D
Pasajera en trance,
Gadd11 Fsus2 Dsus4
transitando los lugares ciertos.
D
Un amor real
G Fsus2 Dsus4
es como dormir y estar despierto.
D
Un amor real
Gadd11 Fsus2
es como vivir en aeropuertos.
[Outro]
F Am G Dm7 F G |

Dm7 F G Dsus4 | x3

[Tablatura]
e|-------------------------------------------------------------------------|

b|-17-13-15---13-15--17-13-15--13-13-15-13--17-13-15--13-17-15--12-10-8----|

g|---------14----------------14---------------------14---------------------|

D|-------------------------------------------------------------------------|

A|-------------------------------------------------------------------------|

E|-------------------------------------------------------------------------|

e|---------------------------15-15-13-12-13-12-----15----------------------|

b|13-12-13-12-13-13-12--12-15-----------------13-12------------------------|

g|-------------------------------------------------------------------------|

D|-------------------------------------------------------------------------|

A|-------------------------------------------------------------------------|

E|-------------------------------------------------------------------------|

e|---------------------------15-15-13-12-13-12-----15----------------------|

b|13-12-13-12-13-13-12--12-15-----------------13-12------------------------|

g|-------------------------------------------------------------------------|

D|-------------------------------------------------------------------------|

A|-------------------------------------------------------------------------|

E|-------------------------------------------------------------------------|

e|---------------------------15-15-----------------------------------------|

b|13-12-13-12-13-13-12--12-15----------------------------------------------|

g|-------------------------------------------------------------------------|

D|-------------------------------------------------------------------------|

A|-------------------------------------------------------------------------|

E|-------------------------------------------------------------------------|

e|-------------------------------------------------------------------------|

b|-17-13-15---13-15--17-13-15--13-13-15-13--17-13-15--13-17-15--12-10-8----|

g|---------14----------------14---------------------14---------------------|

D|-------------------------------------------------------------------------|

A|-------------------------------------------------------------------------|

E|-------------------------------------------------------------------------|

e|-------------------------------------------------------------------------|

b|-17-13-15---13-15--17-13-15--13-13-15-13--17-13-15--13-17-15--12-10-8----|

g|---------14----------------14---------------------14---------------------|

D|-------------------------------------------------------------------------|

A|-------------------------------------------------------------------------|

E|-------------------------------------------------------------------------|

e|-------------------------------------------------------------------------|

b|-17-13-15---13-15--17-13-15--13-13-15-13--17-13-15--13-17-15--12-10-8----|

g|---------14----------------14---------------------14---------------------|

D|-------------------------------------------------------------------------|

A|-------------------------------------------------------------------------|

E|-------------------------------------------------------------------------|

Este sitio usa cookies