Cantata de puentes amarillos

+ nueva lista

Pescado Rabioso

Versión
estudio
publicado por
iri
Tono
A-
A+
Deslizar
A -> La
Video
Acordes
	 
[Riff]
e|----------------|--||-----------------|

b|----------------|--||-----------------|

g|----------------|--||-----------------|

d|----------------|x3||-----------------|

a|---------9-11-9v|--||-12-11-9v--12-11v|

E|-9-10-12--------|--||-----------------|


e|----------------|--||-----------------|

b|----------------|--||-----------------|

g|----------------|--||-----------------|

d|---------9-11-9v|x3||-12-11-9v--12-11v|

a|-9-11-12--------|--||-----------------|

E|----------------|--||-----------------|

e|------------------9|--||------------9-|

b|------------10/(9)-|--||10p9--------10|

g|-------9--11-------|x3||----11h9----11|

d|-11-12-------------|--||--------12v-12|

a|-------------------|--||--------------|

E|-------------------|--||--------------|

A Dmaj7 C#

e|------0--|-----9-|---------9--|

b|-----5---|---10--|--------9---|

g|----6----|--11---|------10----|

d|---7-----|-12----|----11------|

a|--0------|-------|--11--------|

E|---------|-------|-9----------|

[Estrofa]
A D/A
La la la laaaa la la la laaaa
E5 D5 C5
Todo camino puede andar
Bsus2/F# Bbsus2/F
Todo puede andar
[Estrofa]
A6-A6sus4
Con esta sangre alrededor
A6-A6sus4
no sé que puedo yo mirar
D7-D7sus4
la sangre ríe idiota
G G6/9 - G
como esta canción
Gm7
¿y ante quién?
[Estribillo]
D Bb Ainv
Ensucien sus manos como siempre
D Bb Ainv D/F#
Relojes se pudren en sus mentes ya
[Riff]
G
e|-------------------|

b|-0h1-0-----------0-|

g|-0-----0h2p0-----0-|

d|-0------------2--0-|

a|-2---------------2-|

E|-3---------------3-|

[Estrofa]
Cm7dim Bm7dim G* (Fill G)
Y en el mar
Cm7dim Bm7dim G* (Fill G)
Nau fra gó
Cm7dim Bm7dim G* C
U - na balsa que nunca zarpó
C C/B Am (Am7/G - Am - Am7/G - Am)
Mar a- quí
Am Am7/G D/F#
Mar a - llá
[Estrofa]
A6-A6sus4
En un momento vas a ver
A6-A6sus4
que ya es la hora de volver
D7-D7sus4
pero trayendo a casa todo aquél fulgor
G G6/9 - G
¿y para quién?
[Estribillo]
D Bb Ainv
Las almas repudian todo encierro
Gm/Bb
las cruces dejaron de llover
[Estrofa]
F#m
sube al taxi, nena
G#dim F#minv C#7(#9)
los hombres te miran
Dmaj7/F#
te quieren tomar
F#m
ojo el ramo, nena
G#dim F#minv C#7(#9)
las flores se caen
Dmaj7/F#
tenés que parar
[Post-Estribillo]
B7/9 E DMaj7/F#
Ví las sonrisas muriendo en el carrousell
B7/9 E Dmaj7/F#
Vi tantos monos, nidos, platos de café
E DMaj7/F# C#7/#9
platos de café ahhh
[Riff]
C#7
e|-----------------------9--7-|------------------------------------|--||

b|--------------6--7p6---9--7-|---------------------------0-----0-0|--||

g|-6--7--6-6----4--4-----7--6-|-6--7--6---4h6-4-----------4-----4-4|--||

d|-4--4--4-4-7--0--0----------|-4--4--4---------7--4---3--3--3--3-3|x2||

a|-0--0--0-0------------------|-0--0--0----------------4-----4-----|--||

E|----------------------------|------------------------0-----0-----|--||

[Solo]
B7/11 A Amaj7 Bm7 Bm7 C#7(#9)


[Estrofa]
F#m
Guarda el hilo, nena
G#dim F#minv C#7(#9)
guarden bien tus manos
Dmaj7/F#
esta libertad
F#m
ya no poses, nena
G#dim F#minv C#7(#9)
todo eso es en vano
Dmaj7/F#
como no dormir
[Pre-Estribillo]
B7/9 E DMaj7/F#
Aunque me fuercen yo nunca voy a decir
B7/9 E Dmaj7/F#
que todo tiempo por pasado fue mejor
E DMaj7/F# C#7/#9
mañana es mejor
C#7(#9) F#m
ahh ahhh
[Puente]
D7(#9) G#m - E7(#9) - F#7(#9)/C# F#7(#9)
[Puente]
Bm Bb7/13 A Bb
Ahhhh ah ah ah ah ah ah ah ahhhh ah ah ah ah ah ah ah ah
Bm Bb7/13 A Bb
Ahhhh ah ah ah ah ah ah ah ahhhh ah ah ah ah ah ah ah ah
Bm E F F#
Ahhhh ah ah ah ah ah ah ah ahhhh ah ah ah ah ah ah ah ah
Bm Am C6 Fmaj7
Ahhh bam bam bam
Bm - G - Fmaj7 - G
Bm - G - Fmaj7 - G
[Estribillo]
Bm G Fmaj7 G Bm A Bm A
Aquellas sombras del camino azul, ¿dónde están?
Bm G Fmaj7 G Bm A Bm A
Yo las comparo con cipreses que ví solo en sueños
Bm G Fmaj7 G Bm G Fmaj7 G
y las muñecas tan sangrantes están de llorar
[Post-Estribillo]
Ainv C
yo te amo tanto que
C#m C Ainv C - C#m C
no puedo despertarme sin amar
Ainv C
y te amo tanto que
C#m C Ainv C - C#m C
no puedo despertarme sin amar
Ainv C
y te amo tanto que
C#m C Ainv C - C#m C C#m C C#m C
no puedo despertarme sin amar
[Puente]
Bm Bb7/13 A Bb
Ahhhh ah ah ah ah ah ah ah ahhhh ah ah ah ah ah ah ah ah
Bm Bb7/13 A Bb
Ahhhh ah ah ah ah ah ah ah ahhhh ah ah ah ah ah ah ah ah
Bm E F F#
Ahhhh ah ah ah ah ah ah ah ahhhh ah ah ah ah ah ah ah ah
Bm E F F#
Ahhhh ah ah ah ah ah ah ah ahhhh ah ah ah ah ah ah ah ah
Bm Am C6 Fmaj7 Bb
Ahhh bam bam bam bam
[Riff]
e|-----------------------10--9-/7-----12---12--12-12-|--||

b|--------5--6h8p6/5--6--11--10/8-----12---12--12-12-|--||

g|--5--7-----------------10--9-/7-----12---12--12-12-|--||

d|--7------------------------------------------------|x4||

a|--0------------------------------------------------|--||

E|---------------------------------------------------|--||

[Post-Estribillo]
Baug(b9) Csus2(#11)
¡No! nunca la abandones
Baug(b9) Csus2(#11)
¡No! puentes amarillos,
Baug(b9) Csus2(#11)
Mira el pájaro se muere en su jaula
[Riff]
e|-----------------------10--9-/7-----12---12--12-12-|--||

b|--------5--6h8p6/5--6--11--10/8-----12---12--12-12-|--||

g|--5--7-----------------10--9-/7-----12---12--12-12-|--||

d|--7------------------------------------------------|x4||

a|--0------------------------------------------------|--||

E|---------------------------------------------------|--||

[Post-Estribillo]
Baug(b9) Csus2(#11)
¡No! nunca la abandones
Baug(b9) Csus2(#11)
¡No! puentes amarillos,
Baug(b9) Csus2(#11)
Mira el pájaro se muere en su jaula
Bbmaj7(b5)
hoy
Gm7 Bb
te amo ya
Am7 F# Bb
y ya es mañanaaaaa
[Riff]
e|-----------------------10--9-/7-----12---12--12-12-|--||

b|--------5--6h8p6/5--6--11--10/8-----12---12--12-12-|--||

g|--5--7-----------------10--9-/7-----12---12--12-12-|--||

d|--7------------------------------------------------|x4||

a|--0------------------------------------------------|--||

E|---------------------------------------------------|--||

Mañana, mañana
Mañana, mañana
Este sitio usa cookies