Borrando fronteras

Para añadir a una lista personal debes
ó

Peteco Carabajal

Versión
vivo
publicado por
iri
Tono
A-
A+
Deslizar
A -> La
Video
Acordes
	 
[Riff]
E7 Am E7 Am
e-|---0-0|(0)-0-2-4-5-|-(5)-0---0--|---------|---------|

B-|------|------------|-------1---3|3-0---0--|---------|

G-|---1-1|(1)-1-2-4-5-|-(5)-5-2---4|4-1-1----|-2-------|

D-|------|------------|------------|------0--|---------|

A-|------|------------|------------|----2----|-3-------|

E-|------|-0----------|------------|---------|---------|

E7 Am Dm E7 Am

e-|---0-0|(0)-0-2-4-5-|-(5)-------0-|-1--------|---------|

B-|------|------------|---------1---|---3-0----|---------|

G-|---1-1|(1)-1-2-4-5-|-(5)---2-----|-2------1-|-2-------|

D-|------|------------|-----2-------|---3-0----|---------|

A-|------|------------|-------------|--------2-|-3-------|

E-|------|-0----------|-------------|----------|---------|

[Intro]
E7 - Am - E - Am

E7 - Am - Dm E7 - Am

[Estrofa]
E7 Am
Abriendo la noche
G C/G
Borrando fronteras
F
Con su corazón de bombo
E7 Am
Camina la chacarera.
[Puente]
E7 - Am x 3
[Estrofa]
E7 Am
Se hamaca en el viento
G C/G
Contempla los mares
F
Pregunta con una copla
E7 Am
por sus hermanos de sangre.
[Puente]
E7 - Am x3
[Estrofa]
E7 Am
La tierra que es madre
G C/G
Le da los sonidos
F
Amores y sinsabores
E7 Am
Se quedan en los caminos.
[Estribillo]
E7 Am
Abriendo la noche
G C/G
Borrando fronteras
F
Con su corazón de bombo
E7 Am
Camina la chacarera.
[Puente]
E7 - Am - E - Am

E7 - Am - Dm E7 - Am

[Riff]
E7 Am E7 Am

e-|---0-0|(0)-0-2-4-5-|-(5)-0---0--|---------|---------|

B-|------|------------|-------1---3|3-0---0--|---------|

G-|---1-1|(1)-1-2-4-5-|-(5)-5-2---4|4-1-1----|-2-------|

D-|------|------------|------------|------0--|---------|

A-|------|------------|------------|----2----|-3-------|

E-|------|-0----------|------------|---------|---------|

E7 Am Dm E7 Am

e-|---0-0|(0)-0-2-4-5-|-(5)-------0-|-1--------|---------|

B-|------|------------|---------1---|---3-0----|---------|

G-|---1-1|(1)-1-2-4-5-|-(5)---2-----|-2------1-|-2-------|

D-|------|------------|-----2-------|---3-0----|---------|

A-|------|------------|-------------|--------2-|-3-------|

E-|------|-0----------|-------------|----------|---------|

[Estrofa]
E7 Am
Son mi referencia
G C/G
La miel y la arena
F
Un patio y un algarrobo
E7 Am
Vidala de luna llena.
[Puente]
E7 - Am x3
[Estrofa]
E7 Am
Salitres plateados
G C/G
Chipacos calientes
F
Violines de Salamanca
E7 Am
Y el bailarín diferente.
[Puente]
E7 - Am x3
[Estrofa]
E7 Am
Ciudades lejanas
G C/G
Con hijos del alma
F
En el puerto de unos ojos
E7 Am
Se amarra nuestra añoranza.
[Estribillo]
E7 Am G F
Abriendo la noche
G/B C/G
Borrando fronteras
F
Con su corazón de bombo
E7 Am
Camina la chacarera.
Este sitio usa cookies