La gente del campo

Para añadir a una lista personal debes
ó

Raly Barrionuevo

Versión
estudio
publicado por
iri
Tono
A-
A+
Deslizar
A -> La
Video
Acordes
	 
[Riff]
G C G C

e-|-7-10--7-10-10-|-8-10-8--------|-7-10--7-------|-8-10-10---12-10---7-5------|

B-|-8-8---8-8--8--|-8-8--8--------|-8-8---8-------|-8-8---------------8-7-7-8--|

G-|-7-7---7-7--7--|-9-9--9--------|-7-7---7-------|-9-9-------------------7-7--|

D-|---------------|---------------|---------------|----------------------------|

A-|---------------|---------------|---------------|----------------------------|

E-|---------------|---------------|---------------|----------------------------|

En el puente puede hacerse el Riff o solamente los acordes.
[Estrofa]
G F
Con su aroma natural
G
del monte vienen llegando
G Am7
Algun pariente lejano
D7 G
algun amigo del campo
[Puente]
G - C/G x2
[Riff]
G C G C
e-|-7-10--7-10-10-|-8-10-8--------|-7-10--7-------|-8-10-10---12-10---7-5------|

B-|-8-8---8-8--8--|-8-8--8--------|-8-8---8-------|-8-8---------------8-7-7-8--|

G-|-7-7---7-7--7--|-9-9--9--------|-7-7---7-------|-9-9-------------------7-7--|

D-|---------------|---------------|---------------|----------------------------|

A-|---------------|---------------|---------------|----------------------------|

E-|---------------|---------------|---------------|----------------------------|

[Estrofa]
G F
Traerá sus olores viejos
G
recuerdo de un tiempo ido
G Am7
cuando se les caiga el quichua
D7/A G
del castellano exigido
[Puente]
G - C/G x2
[Estrofa]
G F
El primer sorbo de agua
G
tiene un mirar legendario
G Am7
y brilla en sus ojos negros
D7 G
espejados en el vaso
[Estribillo]
G F
El destello luminoso
G
del alma me cosquillea
G Am7
y quiero volver con él
D7/A G
como si todo pudiera.
[Puente]
G - C/G x2
[Estrofa]
G F
Llegará gente del campo
G
mi casa se ha vuelto fiesta
G Am7
serpentina de mi raza
D7 G
que indica que no está muerta.
[Puente]
G - C/G x2
[Estrofa]
G F
Llegará gente del campo
G
traerá noticias del monte
G Am7
si llovió perlas azules
D7 G
y el santo vela sus nombres.
[Puente]
G - C/G x2
[Estrofa]
G F
Sabedores siderales del tiempo
G
y la vida misma
G Am7
cultores y fuente nueva
D7 G
de lo que viene a la vista
[Estribillo]
G F
El destello luminoso
G
del alma me cosquillea
G Am7
y quiero volver con él
D7/A G
como si todo pudiera.
[Outro]
G - C/G
Este sitio usa cookies