Un pájaro canta

Para añadir a una lista personal debes
ó

Raly Barrionuevo

Versión
vivo
publicado por
iri
Tono
A-
A+
Deslizar
A -> La
Video
[Capotraste en 3]
Acordes
	 
[Riff]
e|--------------------------------------------|-7--------7----7s8--8-----7-----5--3----2--2s3-0--|

b|-8------8---8--10----10-8-7s5-5----4-----7-5|---0--------0-------------------------------------|

g|---0------0---------------------------------|--------------------------------------------------|

D|-----9------------10----9-7s----4-----7-----|------5----------------5-----4--------1-----------|

A|--------------------------------------------|--------------------------------------------------|

E|--------------------------------------------|--------------------------------------------------|

e|--------------------------------------------|-7--------7----------8---7-----5--3----2--2s3-0--|

b|-8------8---8--10----10-8-7s5-5----4-----7-5|---0--------0------------------------------------|

g|---0------0---------------------------------|-------------------------------------------------|

D|-----9------------10----9-7s----4-----7-----|------5-----------7---------4--------1-----------|

A|------------------0-----0-------0-----0-----|----------------0--------------------------------|

E|--------------------------------------------|-------------------------------------------------|

[Intro]
Em - Am - B7 - Em x2
[Estrofa]
Em
De sueño en sueño
Am Em
fuiste llegando
C Am
amigo, Piedra
Bbdim7 B7
cantando a mi pago,
Am Em
Silencio el viento
C7 B7
tu corazón.
[Riff]
e|--------------------------------------------|-7--------7----7s8--8-----7-----5--3----2--2s3-0--|

b|-8------8---8--10----10-8-7s5-5----4-----7-5|---0--------0-------------------------------------|

g|---0------0---------------------------------|--------------------------------------------------|

D|-----9------------10----9-7s----4-----7-----|------5----------------5-----4--------1-----------|

A|--------------------------------------------|--------------------------------------------------|

E|--------------------------------------------|--------------------------------------------------|

e|--------------------------------------------|-7--------7----------8---7-----5--3----2--2s3-0--|

b|-8------8---8--10----10-8-7s5-5----4-----7-5|---0--------0------------------------------------|

g|---0------0---------------------------------|-------------------------------------------------|

D|-----9------------10----9-7s----4-----7-----|------5-----------7---------4--------1-----------|

A|------------------0-----0-------0-----0-----|----------------0--------------------------------|

E|--------------------------------------------|-------------------------------------------------|

[Puente]
Em - Am - B7 - Em x2
[Estrofa]
Em
Errante viejo
Am Em
de una nostalgia
C Am
tu voz resuena
Bbdim7 B7
dentro de mi alma,
Am Em
mi santiagueño
C/G B7
tierra y palabra.
[Riff]

e|--------------------------------------------|-7--------7----7s8--8-----7-----5--3----2--2s3-0--|

b|-8------8---8--10----10-8-7s5-5----4-----7-5|---0--------0-------------------------------------|

g|---0------0---------------------------------|--------------------------------------------------|

D|-----9------------10----9-7s----4-----7-----|------5----------------5-----4--------1-----------|

A|--------------------------------------------|--------------------------------------------------|

E|--------------------------------------------|--------------------------------------------------|

e|--------------------------------------------|-7--------7----------8---7-----5--3----2--2s3-0--|

b|-8------8---8--10----10-8-7s5-5----4-----7-5|---0--------0------------------------------------|

g|---0------0---------------------------------|-------------------------------------------------|

D|-----9------------10----9-7s----4-----7-----|------5-----------7---------4--------1-----------|

A|------------------0-----0-------0-----0-----|----------------0--------------------------------|

E|--------------------------------------------|-------------------------------------------------|

[Puente]
Em - Am - B7 - Em x2
[Estrofa]
Em
Corcel de acero,
Am Em
es tu guitarra
C Am
cabalga senderos
Bbdim7 B7
hechos de magia,
Am Em
tejiendo empeños,
C7 B7
en tu mirada.
[Estribillo]
Em
Jacinto Piedra
Am Em
un pájaro canta,
C Am
la chacarera
Bbdim7 B7
detrás de tu magia,
Am Em
vuelve Jacinto,
Am B7 Em
nunca te vayas.
[Riff]

e|--------------------------------------------|-7--------7----7s8--8-----7-----5--3----2--2s3-0--|

b|-8------8---8--10----10-8-7s5-5----4-----7-5|---0--------0-------------------------------------|

g|---0------0---------------------------------|--------------------------------------------------|

D|-----9------------10----9-7s----4-----7-----|------5----------------5-----4--------1-----------|

A|--------------------------------------------|--------------------------------------------------|

E|--------------------------------------------|--------------------------------------------------|

e|--------------------------------------------|-7--------7----------8---7-----5--3----2--2s3-0--|

b|-8------8---8--10----10-8-7s5-5----4-----7-5|---0--------0------------------------------------|

g|---0------0---------------------------------|-------------------------------------------------|

D|-----9------------10----9-7s----4-----7-----|------5-----------7---------4--------1-----------|

A|------------------0-----0-------0-----0-----|----------------0--------------------------------|

E|--------------------------------------------|-------------------------------------------------|

[Puente]
Em - Am - B7 - Em x2
[Estrofa]
Em
Un viento turbio
Am Em
te fue alejando
C Am
mi pueblo llora
Bbdim7 B7
tu desam.....paro
Am Em
sigues cantando
C/G B7
lejos del pago.
[Riff]

e|--------------------------------------------|-7--------7----7s8--8-----7-----5--3----2--2s3-0--|

b|-8------8---8--10----10-8-7s5-5----4-----7-5|---0--------0-------------------------------------|

g|---0------0---------------------------------|--------------------------------------------------|

D|-----9------------10----9-7s----4-----7-----|------5----------------5-----4--------1-----------|

A|--------------------------------------------|--------------------------------------------------|

E|--------------------------------------------|--------------------------------------------------|

e|--------------------------------------------|-7--------7----------8---7-----5--3----2--2s3-0--|

b|-8------8---8--10----10-8-7s5-5----4-----7-5|---0--------0------------------------------------|

g|---0------0---------------------------------|-------------------------------------------------|

D|-----9------------10----9-7s----4-----7-----|------5-----------7---------4--------1-----------|

A|------------------0-----0-------0-----0-----|----------------0--------------------------------|

E|--------------------------------------------|-------------------------------------------------|

[Puente]
Em - Am - B7 - Em x2
[Estrofa]
Em
Changuito tierno
Am Em
dulce y amargo
C Am
vienes de monte
Bbdim7 B7
adentro de mi pago
Am Em
la Salamanca
C7 B7
te dió la mano.
[Riff]

e|--------------------------------------------|-7--------7----7s8--8-----7-----5--3----2--2s3-0--|

b|-8------8---8--10----10-8-7s5-5----4-----7-5|---0--------0-------------------------------------|

g|---0------0---------------------------------|--------------------------------------------------|

D|-----9------------10----9-7s----4-----7-----|------5----------------5-----4--------1-----------|

A|--------------------------------------------|--------------------------------------------------|

E|--------------------------------------------|--------------------------------------------------|

e|--------------------------------------------|-7--------7----------8---7-----5--3----2--2s3-0--|

b|-8------8---8--10----10-8-7s5-5----4-----7-5|---0--------0------------------------------------|

g|---0------0---------------------------------|-------------------------------------------------|

D|-----9------------10----9-7s----4-----7-----|------5-----------7---------4--------1-----------|

A|------------------0-----0-------0-----0-----|----------------0--------------------------------|

E|--------------------------------------------|-------------------------------------------------|

[Puente]
Em - Am - B7 - Em x2
[Estrofa]
Em
El cielo espera
Am Em
y espera en vano
C Am
te alejas con algún
Bbdim7 B7
sueño en la mano
Am Em
tu estrella un día
C7 B7
caerá en Santiago.
[Estribillo]
Em
Jacinto Piedra
Am Em
un pájaro canta
C Am
la chacarera
Bbdim7 B7
detrás de tu magia
Am Em
vuelve Jacinto
Am B7 Em
nunca te vayas.
Este sitio usa cookies