Lo Que Sangra (La Cúpula)

Para añadir a una lista personal debes
ó

Soda Stereo

Versión
estudio
publicado por
iri
Tono
A-
A+
Deslizar
A -> La
Video
Acordes
	 
[Riff]
[Dm Dm7Dmb5 Dm7 Dm Dm7 Dmb5 Dm]
e|-5-5-5-8-4-4-4-8-5-5-5-8-4-4-5-|

b|-6-6-6-6-6-6-6-6-6-6-6-6-6-6-6-|

g|-7-7-7-7-7-7-7-7-7-7-7-7-7-7-7-|

D|-------------------------------|

A|-------------------------------|

E|-------------------------------|

Am G A Am G A
e|-0b0-----0b0-----|

b|-1-------1-------|

g|-2-------2-------|

D|-2-------2-------|

A|-0-------0-------|

E|-----3-5-----3-5-|

[Estrofa]
Dm Dbm5 Dm
Yo conozco ese lugar
Dbm5 Am
donde revientan las estrellas
Dm Dbm5 Dm
Yo conozco la escalera en espiral
Dbm5 Am
hacia la cúpula
[Puente]
Bb Bb#11 Bb Bb#11
Los rayos X no penetran
G7 G6 G7 G6
los oscuros vidrios de una limousine
Dm7 A7 C G
Te rescataré
Dm7 A7 C G7
Te rescataré
[Pre-Estribillo]
Bb C Am7
Los guardianes pierden el honor
Bb C
mientras desfilan
A7 G7
Hay tanto fraude a nuestro alrededor (comprenderás)
[Estribillo]
D C F C G
Es amor lo que sangra
D C F C G
desde el cielo en la cúpula
D C F C G
Es amor lo que sangra
D C F C G
desde el cielo en la cúpula
D C F C G
Es amor lo que sangra
D C F C G
sobre el techo en la cúpula
[Estrofa]
Dm Dbm5 Dm
Yo conozco ese lugar
Dbm5 Am
donde todos se la creen
Dm Dbm5 Dm Db5
Yo conozco la salida de emergencia
Am
que nos salvará
[Tablatura]
Am G A Am G A
e|-0b0-----0b0-----|

b|-1-------1-------|

g|-2-------2-------|

D|-2-------2-------|

A|-0-------0-------|

E|-----3-5-----3-5-|

[Puente]
Bb Bb#11 Bb Bb#11
Pinte tu nombre en las paredes
G7 G6 G7 G6
Si se que esperas no podré dormir
Dm7 A7 C G
Te rescataré
Dm7 A7 C G7
Te rescataré
[Pre-Estribillo]
Bb C Am7
Los guardianes pierden el honor
Bb C
aprovechemos
A7 G7
Hay tanta cama a nuestro alrededor, verás que
[Estribillo]
D C F C G
Es amor lo que sangra
D C F C G
desde el cielo en la cúpula
D C F C G
Es amor lo que sangra
D C F C G
sobre el techo en la cúpula.
[Solo]
e|-----------------------------------------------------------|

b|-----------------------------------------------------------|

g|-9~r7----7p5--------------------------5-7-7--7b9~r7p5--7b9~|

D|-------------7p5--3--2-3-5-2-3----5s7----------------------|

A|-----------------------------------------------------------|

E|-----------------------------------------------------------|

e|------------------------------------------------------10-|

b|-10--8---------------8-10-8-10-10-10-10--10-10---8-10----|

g|-------9-8-7-----7-9-------------------------------------|

D|-------------10------------------------------------------|

A|---------------------------------------------------------|

E|---------------------------------------------------------|

e|-13~--10-13b15r13-10--13~--10~---13p10--13p10--13p10--13p10-|

b|------------------------------------------------------------|

g|------------------------------------------------------------|

D|------------------------------------------------------------|

A|------------------------------------------------------------|

E|------------------------------------------------------------|

e|-13b15~15r13~---------10-----------------------------------|

b|---------------13b15~----13-10-----------------------------|

g|-------------------------------12-10-------12----10--------|

D|-------------------------------------12-10----12----12-12--|

A|-----------------------------------------------------------|

E|-----------------------------------------------------------|

[Puente]
Bb Bb#11 Bb Bb#11
Los rayos X no penetran
G7 G6 G7 G6
los oscuros vidrios de una limousine
Dm7 A7 C G
Te rescataré
Dm7 A7 C G7
Te rescataré
[Pre-Estribillo]
Bb C Am7
Los guardianes pierden el honor
Bb C
mientras desfilan
A7 G7
Hay tanto fraude a nuestro alrededor (comprenderás)
[Estribillo]
D C F C G
Es amor lo que sangra
D C F C G
desde el cielo en la cúpula
D C F C G
Es amor lo que sangra
D C F C G
desde el cielo en la cúpula
D C F C G
Es amor lo que sangra
D C F C G
sobre el techo en la cúpula
[Outro]
D C F C G
Es amor lo que sangra (cúpula)
D C F C G
Es amor lo que sangra (cúpula)
[Outro]
D - C9 - F9 - C9 - G
Este sitio usa cookies