Confesiones de invierno

Para añadir a una lista personal debes
ó

Sui Generis

Versión
estudio
publicado por
iri
Tono
A-
A+
Deslizar
A -> La
Video
Acordes
	 
[Intro]
e|------2h3p2---------2h3p2---------------------|

b|----3------3------3------3--------------------|

g|--2--2------0h2--2-2-------2--------0------0--|

D|-0--------------0-----------------0------0----|

A|-------------------------------0h3---0h2------|

E|----------------------------------------------|

e|------2h3p2-----------2h3p2-------------------|

b|----3------3-------3--------3-----------------|

g|--2--2-------2---2---2-------2--------0------0|

D|-0--------------0-----------------0------0----|

A|-------------------------------0h3---0h2------|

E|----------------------------------------------|

e|-----2h3p2----------2h3p2-2--|

b|---3------3-------3----------|

g|--2-2------0h2---2-2---------|

D|-0--------------0------------|

A|-----------------------------|

E|-----------------------------|

[Estrofa]
D G D C G/B A7 D
Me echó de su cuarto gritándome no tienes profesión
D G D C G/B A7 D
tuve que enfrentarme a mi condición en invierno no hay Sol
G/B Gm6/Bb D/A
y aunque digan que va a ser muy fácil
C A7/C# D
es muy duro poder mejorar
G/B Gm6/Bb D/A
hace frió y me falta un abrigo
C G/B A7
y me pesa el hambre de esperar.
[Estrofa]
D G D C G/B A7 D
Quién me dará algo para fumar o casa en que vivir
D G D C G/B A7 D
se que entre las calles debes de estar pero no se partir
G/B Gm6/Bb D/A
y la radio nos confunde a todos
C A7/C# D
sin dinero la pasare mal
G/B Gm6/Bb D/A
si se comen mi carne los lobos
C G/B A7
no podré robarle la mitad.
[Estrofa]
D G D C G/B A7 D
Dios es enpleado en un mostrador da para recibir
D G D C G/B A7 D
quien me dará un crédito mi señor solo se sonreír
G/B Gm6/Bb D/A
y tal ves espere demasiado
C A7/C# D
Quisiera que estuvieras aquí
G/B Gm6/Bb D/A
cerraran las puertas de este infierno
C G/B A7
y es posible que me quiera ir.
[Estrofa]
D G D C G/B A7 D
Conseguí licor y me emborrache en el baño de un bar
D G D C G/B A7 D
fui a dar a la calle de un puntapié y me sentí muy mal
G/B Gm6/Bb D/A
y si bien yo nunca había bebido
C A7/C# D
en la cárcel tuve que acabar
G/B Gm6/Bb D/A
la fianza la pago un amigo
C G/B A7
las heridas son del oficial.
[Estrofa]
D G D C G/B A7 D
Hace cuatro años que estoy aquí y no quiero salir
D G D C G/B A7 D
ya no paso frío y soy feliz mi cuarto da al jardín
G/B Gm6/Bb D/A
y aunque a veces me acuerdo de ella
C A7/C# D
dibuje su cara en la pared
G/B Gm6/Bb D/A
solamente muero los domingos
C G/B D G/D G/C G/B A7 D
y los lunes... ya me siento... bien.
[Instrumental]
G/D G/C G/B A7 D
Este sitio usa cookies