Estación

Para añadir a una lista personal debes
ó

Sui Generis

Versión
estudio
publicado por
iri
Tono
A-
A+
Deslizar
A -> La
Video
Acordes
	 
[Riff]
G D Em C Dsus4 D

E|--3--3-2--2--0-----------------0-0-0-0--0-0--3-3-3-2--2-2-|

B|--3--3-3--3--0-----------------1-1-1-1--1-1--3-3-3-3--3-3-|

G|--4--4-2--2--0-----------------0-0-0-0--0-0--2-2-2-2--2-2-|

D|--5--5-0--0--2------0-2-0------2-2-2-2--2-2--0-0-0-0--0-0-|

A|--5--5-------2--0-2-------2-0--3-3-3-3--3-3---------------|

E|--3--3-------0--------------------------------------------|

[Intro]
G - D - Em - C - Dsus4 D
[Estrofa]
G D Em
Todos sabemos que fue
C Dsus4 D
un verano descalzo y rubio
G D Em
que arrastraba entre los pies
C Dsus4 D
gotas claras de un mar oscuro
G B C
y en el pecho dos medanos eternos
E Am
y en los ojos un cielo trasparente
G B Em
que brillaban tras el sol
Am7 D
serena y furiosamente.
[Riff]
G D Em C Dsus4 D

E|--3--3-2--2--0-----------------0-0-0-0--0-0--3-3-3-2--2-2-|

B|--3--3-3--3--0-----------------1-1-1-1--1-1--3-3-3-3--3-3-|

G|--4--4-2--2--0-----------------0-0-0-0--0-0--2-2-2-2--2-2-|

D|--5--5-0--0--2------0-2-0------2-2-2-2--2-2--0-0-0-0--0-0-|

A|--5--5-------2--0-2-------2-0--3-3-3-3--3-3---------------|

E|--3--3-------0--------------------------------------------|

[Estrofa]
G D Em
Quizas sepan que tenia
C Dsus4 D
una hermosa compañera
G D Em
que reia y se entregaba
C Dsus4 D
desnuda sobre la arena
G B C
que volaba cuando estaba en algun sueño
E Am
para despertarse dentro de su dueño
G B Em
al que le daba su amor
Am7 D
hermosa y salvajemente.
[Outro]
G C G
Este sitio usa cookies