Psycho Killer

Para añadir a una lista personal debes
ó

Talking Heads

Versión
estudio
publicado por
rafah
Tono
A-
A+
Deslizar
A -> La
Video
Acordes
Traducción
	 
[Intro]
e||-------------------|---------------------------|

B||-------------------|---------------------------|

G||-------------------|---------------------------|

D||-------------------|---------------------------| (x6)

A||-------------------|---------------------------|

E||--5x--5x--5x--5x---|--5x--5x--5-0-3------------|

add on third pass
G/A
e||-------------------|---------------------------|

B||---12--------------|---------------------------|

G||---12--------------|---------------------------|

D||---12--------------|---------------------------|

A||---12--------------|---------------------------|

E||-------------------|---------------------------|

add on fourth pass
G6/A
e||---12--------------|---------------------------|

B||---12--------------|---------------------------|

G||---12--------------|---------------------------|

D||---12--------------|---------------------------|

A||-------------------|---------------------------|

E||-------------------|---------------------------|

add on fifth and sixth pass
A A7
e||--5-5-5-5-5-5-5-5---|--5-5-5-5-5--8-8-8-8-8-8-|

B||--5-5-5-5-5-5-5-5---|--5-5-5-5-5--7-7-7-7-7-7-|

G||--6-6-6-6-6-6-6-6---|--6-6-6-6-6--8-8-8-8-8-8-|

D||--7-7-7-7-7-7-7-7---|--7-7-7-7-7--------------|

A||--------------------|-------------------------|

E||--------------------|-------------------------|

[Tablatura]
A7 G
e||------0-------0----|-------0------------------|

B||---2------------2--|----------2------0--------|

G||--------0--0-------|----0------------0--------|

D||-------------------|-------------2------------|

A||-0-----------------|--0-----------------------| x each verse line

E||-------------------|--------------------------|

[Estrofa]
A7 G
I can't seem to face up to the facts
A7 G
I'm tense and nervous and I can't relax
A7 G
I can't sleep cause my bed's on fire
A7 G
Don't touch me I'm a real live wire
[Estribillo]
F G
Psycho killer, qu'est-ce que c'est
Am
Fa fa fa fa fa fa fa fa fa fa better
F G C
Run run run run run run run run a-way Ah oohhh
F G
Psycho killer, qu'est-ce que c'est
Am
Fa fa fa fa fa fa fa fa fa fa better
F G C
Run run run run run run run run a-way
F G
Oh oh oh oooooooh Ay ay ay ay ay ay ay ooooh
[Instrumental]
A7 G x2
[Estrofa]
A7 G
You start a conversation, you can't even finish it
A7 G
You're talking a lot, but you're not saying anything
A7 G
When I have nothing to say, my lips are sealed
A7 G
Say something once, why say it again
[Estribillo]
F G
Psycho killer, qu'est-ce que c'est
Am
Fa fa fa fa fa fa fa fa fa fa better
F G C
Run run run run run run run run a-way oh oh oh
F G
Psycho killer, qu'est-ce que c'est
Am
Fa fa fa fa fa fa fa fa fa fa better
F G C
Run run run run run run run run a-way
F G
Oh oh oh oooooooh Ay ay ay ay ay
[Tablatura]
(first two bridge lines)
Bm G
e||------------------|------------------------------|

B||------------------|------------------------------|

G||------------------|------------------------------|

D||-4-2-0------------|--5-4-2-0-5-4-2-0-------------|

A||--------4-2-0-2-4-|------------------------------|

E||------------------|------------------------------|

[Puente]
Bm G
Ce que j'ai fais, ce soir là (What I did that night)
Bm C
Ce qu'elle a dit, ce soir-là (What she said that night)
A
Réalisant mon espoir (Realizing my hopes)
G
Je me lance vers la gloire (I rush towards glory)
A G
Okay
A G
Yay yay yay yay yay yay yay yah
A G
We are vain and we are blind
A G
I hate people when they're not polite
[Estribillo]
F G
Psycho killer, qu'est-ce que c'est
Am
Fa fa fa fa fa fa fa fa fa fa better
F G C
Run run run run run run run run a-way oooh oh oh
F G
Psycho killer, qu'est-ce que c'est
Am
Fa fa fa fa fa fa fa fa fa fa better
F G C
Run run run run run run run run a-way
F G
Oh oh oh oooooooh Ay ay ay ay ay ay ay
[Tablatura]
---ENDING---

Layer these in order depending on how many players you have - (recording goes 25 measures )

A A A A A A A Em G
e||--0--0------0--0----|--0--0----0---0--3-------|

B||--2--2-0----2--2-0--|--2--2-0--2---0--3-------|

G||--2--2-0----2--2-0--|--2--2-0--2---0--0-------|

D||--2--2-0----2--2-0--|--2--2-0--2---2--0-------|

A||--0--0------0--0----|--0--0----0---2--2-------|

E||--------------------|--------------0--3-------|

A A7
e||--5-5-5-5-5-5-5-5---|--5-5-5-5-5--8-8-8-8-8-8-|

B||--5-5-5-5-5-5-5-5---|--5-5-5-5-5--7-7-7-7-7-7-|

G||--6-6-6-6-6-6-6-6---|--6-6-6-6-6--8-8-8-8-8-8-|

D||--7-7-7-7-7-7-7-7---|--7-7-7-7-7--------------|

A||--------------------|-------------------------|

E||--------------------|-------------------------|

e||--------------------|--------------------------|

B||--------------------|--------------------------|

G||--------------------|--------------------------|

D||--------------------|--------------------------|

A||--------------------|--------------------------|

E||--5--5------5--5----|--5--5----5---0--3--------|

Chorus Alt/Bass Part first line
F G
e||---------------------------------|

B||---------------------------------|

G||---------------------------------|

D||-3-------3-------5-------7-------|

A||-----5-3-----5-3-----7-5-----7-5-|

E||---------------------------------|

Este sitio usa cookies