A Forest

Para añadir a una lista personal debes
ó

The Cure

Versión
estudio
publicado por
rafah
Tono
A-
A+
Deslizar
A -> La
Video
Acordes
Traducción
	 
[Intro]
[Synth intro]

e|----------------|----------------|

B|----------------|----------------|

G|----------------|----------------|

D|-------------0--|-------------0--|

A|-0---3----------|-0---3----------|

E|---------1------|---------1------|

[Guitar & bass intro]

e|------------------------|-------------------------|--------------------|

B|------------------------|-------------------------|--------------------|

G|------------------------|-------------------------|--------------------|

D|----7------3----2----3--|-----7------3----2----3--|----7---9---10---3--|

A|--0------0----0----0----|---0------0----0----0----|--0---0---0----0----|

E|------------------------|-------------------------|--------------------|

e|--------------------|------------------|-----------------------|

B|--------------------|------------------|-----------------------|

G|--------------------|------------------|-----------------------|

D|-7-5-7-9-10-9-7-5-7-|-5-7-9-10-9-7-5-7-|---7------3----2----3--|

A|--------------------|------------------|-0------0----0----0----|

E|--------------------|------------------|-----------------------|

(faster tempo, drums begin)

e|------------------------|-------------------------|-------------------------|

B|------------------------|-------------------------|-------------------------|

G|------------------------|-------------------------|-------------------------|

D|----7------3----2----3--|-----7------3----2----3--|-----7------3----2----3--|

A|--0------0----0----0----|---0------0----0----0----|---0------0----0----0----|

E|------------------------|-------------------------|-------------------------|

e|------------------|---------------|

B|------------------|---------------|

G|------------------|---------------|

D|----7---9---10---7|-5-3-2-0-------|

A|--0---0---0----0--|0-0-0-0--0---0-|

E|------------------|-----------0---|

Am C F Dm (x4)
[Estrofa]
Am C
Come closer and see
F Dm
see into the trees
Am C
find the girl
F Dm
while you can
Am C
Come closer and see
F Dm
see into the dark
Am C
just follow your eyes
F Dm
just follow your eyes
[Instrumental]
B C F# C

B C F# F

Am C F Dm

Am C F Dm

Am C F Dm

Am C F Dm

[Estrofa]
Am C
I hear her voice
F Dm
calling my name
Am C
the sound is deep
F Dm
in the dark
Am C
I hear her voice
F Dm
and start to run
Am C
into the trees
F Dm
into the trees
[Medio]
B C F# C
B C F# F Am C F Dm
Into the trees !
Am C F Dm
Am C F Dm
Am C F Dm
[Estrofa]
Am C
Suddenly I stop
F Dm
but I know it's too late
Am C
I'm lost in a forest
F Dm
all alone
Am C
The girl was never there
F Dm
it's always the same
Am C
I'm running towards nothing
F Dm
again and again and again and again...
[Medio]
B C
and again and again and again and again
F# C
and again and again and again and again
B C
and again and again and again and again
F# F
and again and again and again and again...
[Outro]
Am C F Dm (x8)
(stroke down, up, then palm mute)
Am C F Dm (x7)
(repeat several times, fading like an echo)
A5