Last Nite

Para añadir a una lista personal debes
ó

The Strokes

Versión
estudio
publicado por
rafah
Tono
A-
A+
Deslizar
A -> La
Video
Acordes
Traducción
	 
[Tablatura]
(Riff 1)

(Guitar 1 - 12x)

E|-----------------------------------------------------|

B|-----------------------------------------------------|

G|-5--5--5--5--5--5--5--5------------------------------|

D|-----------------------------------------------------|

A|-3--3--3--3--3--3--3--3------------------------------|

E|-----------------------------------------------------|

(Guitar 2 - 4x)

E|-----------------------------------------------------|

B|-----------------------------------------------------|

G|-10--10--10--10--10--10--10--10----------------------|

D|-----------------------------------------------------|

A|--8---8---8---8---8---8---8---8----------------------|

E|-----------------------------------------------------|

E|-----------------------------------------------------|

B|-----------------------------------------------------|

G|-12--12--12--12--12--12--12--12----------------------|

D|-----------------------------------------------------|

A|-10--10--10--10--10--10--10--10----------------------|

E|-----------------------------------------------------|

[Estrofa]
C
Last night, she said
Dm7
"Oh, baby, I feel so down
G
Oh it turns me off
When I feel left out"
C
So I, I turned around
Dm7
"Oh, baby, I don't care no more
G
I know this for sure
I'm walking out that door"
C
Well, I've been in town
For just now fifteen minutes now
Dm7
And baby, I feel so down
G
And I don't know why
I keep walkin' for miles
[Estribillo]
(Riff 1)
And people they don't understand
No, girlfriends, they can't understand
Your Grandsons, they won't understand
On top of this
I ain't ever gonna understand
[Estrofa]
C
Last night, she said
Dm7
"Oh, baby, don't feel so down
G
Oh, it turns me off
When I feel left out"
C
So I, I turned around
Dm
"Oh, baby, gonna be alright"
G
It was a great big lie
'Cause I left that night
[Puente]
(Riff 2)
[Solo]
C Dm7 G
E|-13b----14p13p11----11b---13b---14p13p11-----11------|

B|-----------------13----------------------13--11------|

G|-------------------------------------------------10--|

D|-----------------------------------------------------|

A|-----------------------------------------------------|

E|-----------------------------------------------------|

E|-11------10--8--------8-8-------8-8------------------|

B|-----10------8--11b13-----11b13---8------------------|

G|------------------------------------10---------------|

D|-----------------------------------------------------|

A|-----------------------------------------------------|

E|-----------------------------------------------------|

E|-11------10--8--------8-8-------8-8------------------|

B|-----10------8--11b13-----11b13-----13---------------|

G|-----------------------------------------------------|

D|-----------------------------------------------------|

A|-----------------------------------------------------|

E|-----------------------------------------------------|

E|-----------------------------------------------------|

B|-----------------------------------------------------|

G|-----------------------------------------------------|

D|-13p10--13p10--13p10--13p10--13p10-------------------|

A|-----------------------------------------------------|

E|-----------------------------------------------------|

E|-----------------------------------------------------|

B|-8b...-----------------------------------------------|

G|-8b...-----------------------------------------------|

D|-----------------------------------------------------|

A|-----------------------------------------------------|

E|-----------------------------------------------------|

[Estribillo]
(Riff 1)
And people they don't understand
No, girlfriends, they can't understand
In spaceships, they won't understand
And on top of this ain't ever gonna understand
[Estrofa]
C
Last night, she said:
Dm7
"Oh, baby, don't feel so down
G
Oh, it turns me off
When I feel left out"
C
So I, I turned around
Dm7
"Oh, baby, I don't care no more
G
I know this for sure
C
I'm walking out that door"
[Outro]
(Riff 1)
Este sitio usa cookies