Todo sigue igual

Para añadir a una lista personal debes
ó

Viejas Locas

Versión
estudio
publicado por
iri
Tono
A-
A+
Deslizar
A -> La
Video
Acordes
	 
[Intro]
[Bbsus4 Bb]x2
[Estrofa]
Bb
Todo sigue igual
Bb
todo sigue igual de bien,
Gm F Eb
siguen los amigos que quiero tener,
Bb
No me puedo quejar.
Gm F Eb
Algunas chicas me van a entender,
Gm F Eb
en esos momentos que no aguanto más
Gm F
me puedo conformar.
[Estrofa]
Bb
Hago lo que quiero hacer
Bb
y no me sale mal
Gm F Eb
algunas cosas me tocó perder,
Bb
y otras pude ganar.
Gm F Eb
Tengo la banda que quiero tener,
Gm F Eb
y más de una razón para pensar
Gm G#
que todo sigue igual aaaahhhhh
[Estribillo]
F Bb
Cambiar, no cambió nada
F Bb
llegando hasta donde hoy llegué
F Bb
Todo está como estaba
F# G# F
todo está igual de bien.
[Solo]
[Bb - Bbsus4] (x2)

[Gm - Bb - Eb] (x2)

[F - Bb] (x3)

[F# - G# - Bb]

[Solo]
Gm Bb Eb
e|--------------------------------------------------6p3-------- |

B|-----------6------------------------------------------6-6p3-- |

G|-----3-5b----5p3---3-5ba-p3---3-------------3b--------------- |

D|-3-5-------------5----------5---5p3---3-4-5----5------------- |

A|------------------------------------5------------------------ |

E|-------------------------------------------------------------|

Gm Bb Eb
e|------------------------------------------------------------- |

B|--------------6---------------------------------------------- |

G|-5-5p3---3-5b---5p3---3b----------------3-5-5ba-p3---3b------ |

D|-------5------------5----5--5p3---3-4-5------------5--------- |

A|--------------------------------5---------------------------- |

E|-------------------------------------------------------------|

F Bb
e|----1-1----1-----s6-6--------------------------s6-6---------- |

B|----1-1----1-----s6-6--8-6---------------------s6-6-8-6------ |

G|-3b-----3b---3b--------8-6h7----------3b-3b-3b------8-6h7---- |

D|-----------------------------8---3h5----------------------8-- |

A|------------------------------------------------------------- |

E|-------------------------------------------------------------|

F Bb
e|------------------s6-6--------------------------------------- |

B|------------------s6-6-8-6----------7-7-7-----9-9-9---------- |

G|-------10-12-10v-------8-6h7-----s8-------s10---------------- |

D|-10h12-----------------------8------------------------------- |

A|------------------------------------------------------------- |

E|-------------------------------------------------------------|

F# G# Bb
e|------------------------------------------------------------- |

B|-----13------------------------------------------------------ |

G|12b/----12//-p10----10--12ba-p10----10v---------------------- |

D|-----------------12--------------12-------------------------- |

A|------------------------------------------------------------- |

E|-------------------------------------------------------------|

[Estrofa]
Bb
Todo sigue igual
Bb
todo sigue igual de bien,
Gm F Eb
Algunas chicas me van a entender,
Gm F Eb
en esos momentos que no aguanto más
Gm F
me pueden conformar.
[Estribillo]
F Bb
Cambiar, no cambió nada
F Bb
llegando hasta donde hoy llegué
F Bb
Todo está como estaba
F# G# F
todo está igual de bien.
[Puente]
[Bb - Bbsus4] x3
[Estrofa]
Bbsus4 Bb Bbsus4
todo sigue igual de bien,
Bbsus4 Bb Bbsus4
todo sigue igual de bien,
Bbsus4 Bb Bbsus4
todo sigue igual de bien,
Bbsus4 Bb Bbsus4
todo sigue igual de bien,
Bbsus4 Bb Bbsus4
todo sigue igual de bien,
Bbsus4 Bb Bbsus4
todo sigue igual de bien,
[F# - G# - Bb]
Este sitio usa cookies