I've Seen All Good People

Para añadir a una lista personal debes
ó

Yes

Versión
estudio
publicado por
rafah
Tono
A-
A+
Deslizar
A -> La
Video
Acordes
Traducción
	 
Chords:

B A Abm

|-----------0---------4-|

|-4---------2---------4-|

|-4---------2---------4-|

|-4---------2---------6-|

|-2---------0---------6-|

|---------------------4-|

[Intro]
E|-7----7----7h9--7----7-----12---11---7--------|

B|---------0----0-------------------------------|

G|-9----9----9----9----9-----14---13---9--9---9-|

D|------------------------------------------9---|

A|----------------------------------------------|

E|----------------------------------------------|

(when you hit the 0 on the B string it's very quiet)

|-7----7----7----7-----7--------------------------------|

|--------0----0--------------7--------------9-----------|

|-9----9----9----9-----9-----------9----9-------9--6----|

|----------------------------9------------------------7-|

|----------------------------------7--------------------|

|-------------------------------------------------------|

|-7----7----7h9--7----7-----12---11---14---12---14--|

|---------0----0------------------------------------|

|-9----9----9----9----9-----14---13---14---14---14--|

|---------------------------------------------------|

|---------------------------------------------------|

|---------------------------------------------------|

|-14-------14--------14--------14--------16--------|

|--------------------------------------------------|

|-------14--------14--------14--------14--------14-|

|----14--------14--------14--------14--------14----|

|--------------------------------------------------|

|--------------------------------------------------|

[Estribillo]
B A Abm A
Take a straight and stronger course to the corner of your life.
B A Abm A
Make the white queen run so fast she hasn't got time to make you a wife.
B A Abm A
'Cause it's time, it's time in time with your time and its news is captured
A
For the queen to use.
B A Abm A
Dit Do Dit Do Dit Do Dit Da Do
[Tablatura]
Your Move

Rythym:

|-----------------------------------------|

|-----------------------------------------|

|----------4b6b4p2--------------4b6b4p2---|

|-2-2--4-----------4---2-2--4-----------4-|

|-0-0--0---------------0-0--0-------------|

|-----------------------------------------|

|-----------------------------------------|

|-----------------------------------------|

|----------6b8b6p4--------------6b8b6p4---|

|-4-4--6-----------6---4-4--6-----------6-|

|-2-2--2---------------2-2--2-------------|

|-----------------------------------------|

A G F G A
I've seen all good people turn their heads each day so satisfied I'm on my

way.

|-7b9--9b7p5----------7b9--9b7p5----------9b11--11b9p7---------|

|------------7--5--5-------------7--5--5---------------9--7--7-|

|--------------------------------------------------------------|

|--------------------------------------------------------------|

|--------------------------------------------------------------|

|--------------------------------------------------------------|

|-----14----14----14----14-|

|-/16----16----16----16----|

|--------------------------|

|--------------------------|

|--------------------------|

|--------------------------|

[Solo]
|-------------------------------------------5---3--------------------------|

|-2p0---2p0---2p0---3--2---------------------------------------------------|

|-----2-----2-----2-----------------------6---4---2--2p0-------------------|

|-----------------------------------0h2h4----------------2-----0-2-0-------|

|-------------------------------0----------------------------3-------3-0-0-|

|-------------------------0--3---------------------------------------------|

|---55----------------------------------------------------------------17p14----14-|

|-77-----55----------------------------------10p7---7---15-15-15------------17----|

|------66-----66------------------7-7-7-----------9--------------16-14------------|

|-----------77-----77---22--------------9-7---------------------------------------|

|----------------77---44---4/7-x--------------------------------------------------|

|---------------------------------------------------------------------------------|

|---0--0--0--0--0--0--0--0--15p0--15p0--15p0--15p0--15p0--15p0-|

|-0---3--5--7--9-10-12-15-17----17----17----17----17----17-----|

|--------------------------------------------------------------|

|--------------------------------------------------------------|

|--------------------------------------------------------------|

|--------------------------------------------------------------|

|--------------12----------------12-|

|-13-13--13-13-13--13-13--13--13-13-|

|-14-12--12-14-----14-12--12--14----|

|-----------------------------------|

|-----------------------------------|

|-----------------------------------|

|-------------------------|

|----------5------------5-|

|-5-5--5-5-5---5-5--5-5-5-|

|-7-5--5-7-----7-5--5-7---|

|-------------------------|

|-------------------------|

[Outro]
A G F G A
I've seen all good people turn their heads each day so satisfied I'm on my way.
Este sitio usa cookies