El Final Es En Donde Partí

+ nouvelle playlist

La Renga

Version
studio
publié par
iri
Ton
A-
A+
Glisser
A -> La
Video
Accords
Traduction
	 
[Intro]
G E G A Bb A G Riff1
e|-------------------------------------|---------------|

B|-------------------0-----------------|---------------|

G|-------------------0-----------------|---------------|

D|----------------7--7---8-8-8-7-5-----|---------------|x2

A|--5--2---5-(7)--7------8-8-8-7-5-(2)-|-2p1---1---(2)-|

E|--3--0---3-(5)--5----5/6-6-6-5-3-(0)-|-----0---0-----|

G E G A Bb A G E Riff1
e|-------------------------------------|---------------|

B|-------------------------------------|---------------|

G|-------------------------------------|---------------|

D|----------------7--7---8-8-8-7-5-----|---------------|x3

A|--5--2---5-(7)--7--7---8-8-8-7-5-(2)-|-2p1---1~--(2)~|

E|--3-p0---3-(5)--5--5-5/6-6-6-5-3-(0)-|0----0---0-----|

G E G A Bb A G
e|------------------------------------|

b|------------------------------------|

g|------------------------------------|

D|----------------7--7---8-8-8-7-5----|

A|--5--2---5-(7)--7--7---8-8-8-7-5-(2)|

E|--3-p0---3-(5)--5--5-5/6-6-6-5-3-(0)|

[Intro]
[G E - G A - Bb A G E]
[Strophe]
E5
Dejame ver
G5
que hay para saborear esta vuelta
A5 Bb5
la carta no esta siempre a tu alcance
A5 G E Riff1
en los matutinos.
[Strophe]
E5
Loco de pensar
G5
que se dispute el poder y la gloria
A5
y con el frio de un reino
Bb A5 G E Riff1
las almas congelar.
[Strophe]
E5
Cuanta verdad
G5
cuanta mentira y cuantas palabras
A5
y todo este motor
Bb A5 G E Riff1
para devastar tu inconsciente.
[Refrain]
C
Y en que lugar
G5
habrá consuelo para mi locura
D5
esta ironia con que se cura
Bb5 A5 G E Riff1
si el final es en donde partí
C
Y a quien llamar
G5
a quien golpearle la puerta tan tarde
D5
con quien hablar cuando no hay nadie
Bb5 A5 G E Riff 1
si esta noche no puedo morir.
[Intro]
G E G A Bb A G E Riff1
e|-------------------------------------|---------------|

B|-------------------------------------|---------------|

G|-------------------------------------|---------------|

D|----------------7--7---8-8-8-7-5-----|---------------|x3

A|--5--2---5-(7)--7--7---8-8-8-7-5-(2)-|-2p1---1~--(2)~|

E|--3-p0---3-(5)--5--5-5/6-6-6-5-3-(0)-|0----0---0-----|

G E G A Bb A G E
e|------------------------------------|

B|------------------------------------|

G|------------------------------------|

D|----------------7--7---8-8-8-7-5----|

A|--5--2---5-(7)--7--7---8-8-8-7-5-(2)|

E|--3-p0---3-(5)--5--5-5/6-6-6-5-3-(0)|

[Strophe]
E5
Dejame ver
G5
que hay para saborear esta vuelta
A5
la verdad, la mentira y la mueca
Bb A5 G E Riff1
de tu ingenuidad.
[Strophe]
E5
Cuantas palabras
G5
se disputan el poder y la gloria
A5
y cuantas vidas se pierden
Bb A5 G E Riff1
en el frio de un reino mortal.
[Strophe]
E5
Loco de pensar
G5
quería encontrar en razón mi corazón
A5
tiene razones que la propia razón
Bb A5 G E Riff1
nunca entenderá.
[Refrain]
C
Y adonde voy
G5
siempre voy a buscar lo que es mio
D5
aunque el planeta termina en un circulo
Bb5 A5 G E Riff1
y el final es en donde parti.
C
No llores mas
G5
dame la mano contame tu suerte
D5
esta bandera quiza no sea la muerte
Bb5 A5 G E Riff1
la que nos logre apagar el dolor.
[Solo]
e|-3-0-3-(5)~-5--5-5-5^6^5^6^5^6^--6b-5-3------------3-------0--|-3-0--3--5-5-/-12-12-15-15-(12)|

b|-3-0-3------5---------------------------(5)~--x-x--3--x-x--0--|-3-0--3--5-5-/-12-12-15-15-(12)|

g|----------------------------------------------x-x-----x-x-----|-------------------------------|

D|--------------------------------------------------------------|-------------------------------|

A|--------------------------------------------------------------|-------------------------------|

E|--------------------------------------------------------------|-------------------------------|

e|-------------------------| |--------------------------------------|------------15-17-17br-15-16-|

b|-15p12-15p12-15p12-15p12-| |(16b)-16b16b16b16b16b-p15-------------|-------15-17-----------------|

g|-------------------------| |--------------------------12p14-(15b)-|-12/16-----------------------|

D|-------------------------|x2|--------------------------------------|-----------------------------|

A|-------------------------| |--------------------------------------|-----------------------------|

E|-------------------------| |--------------------------------------|-----------------------------|

e|-17br-|-------15--18p17p15-15--18p17p15-15---------|-12-12--15-12-14-(12)|-15-15-1515-15-15-14|

b|--------15-17-----------------------------(18b)-17-|-12-12-----------(12)|--------------------|

g|---------------------------------------------------|---------------------|--------------------|

D|---------------------------------------------------|---------------------|--------------------|

A|---------------------------------------------------|---------------------|--------------------|

E|---------------------------------------------------|---------------------|--------------------|

e|-12----------|-----------------------------------|------------------------------------|

b|----15~--12~-|-17b-17b-17b-17b--15h16h17---------|----12-13-15p13p12----12b-----------|

g|-------------|--------------------------15b-14---|-/14---------------14-----14-12-----|

D|-------------|-----------------------------------|-------------------------------14---|

A|-------------|-----------------------------------|------------------------------------|

E|-------------|-----------------------------------|------------------------------------|

[Refrain]
C
Y en que lugar
G5
habrá consuelo para mi locura
D5
esta ironía con que se cura
Bb5 A5 G E Riff1
si el final es en donde partí
C
No llores mas
G5
dame la mano contame tu suerte
D5
esta bandera quiza no sea la muerte
Bb5 A5 G E Riff1
la que nos logre apagar el dolor.
[Intro]
G E G A Bb A G E Riff1
e|-------------------------------------|---------------|

b|-------------------------------------|---------------|

g|-------------------------------------|---------------|

D|----------------7--7---8-8-8-7-5-----|---------------|x3

A|--5--2---5-(7)--7--7---8-8-8-7-5-(2)-|-2p1---1~--(2)~|

E|--3-p0---3-(5)--5--5-5/6-6-6-5-3-(0)-|0----0---0-----|

G E G A5 Bb A G E
e|-------------------------------------|

b|-------------------------------------|

g|-------------------------------------|

D|----------------7--7---8-8-8-7-5-5--#|

A|--5--2---5-(7)--7--7---8-8-8-7-5-5-2-|

E|--3-p0---3-(5)--5--5-5/6-6-6-5-3-3-0-|

Ce site utilise des cookies