Hablando De La Libertad

Per aggiungere un elenco personale è necessario effettuare il
o

La Renga

Versione
studio
pubblicato da
iri
Tono
A-
A+
Scorrere
A -> La
Video
Accordi
Traduzione
	 
[Intro]
e|-----------------------------------------------------------------------------------------|

b|-----------------------------------------------------------------------------------------|

g|-(7)-----------------------------------------------------------(7)-7-7--7-7-7--77777777--|

D|-(7)-7-5-4-5p4-------------------------------------------------(7)-7-7--7-7-7--77777777--|

A|-(5)-----------5---(7)-7-5-4-5p4--------(5)--3-2-0-3-2-0-0-2/3-(5)-5-5--5-5-5--55555555--|

E|-------------------(5)-------------5----(3)----------------------------------------------|

e|----------------------------------------------------------------------------------------|

b|----------------------------------------------------------------------------------------|

g|-(7)777---------------------------------------------------------------------------------|

D|-(7)777-7-5-4-5p4------------------------------------------------------(7)--------------|

A|-(5)555-----------5---(7)777-7-5-4-5p4--------(5)555-3-2-0-3-2-0-0-2/3-(7)--------------|

E|----------------------(5)555-------------5----(3)333-------------------(5)---------3/---|

Fill 1
e|--------------|

b|--------------|

g|--7--5--7--5--|

D|--7--5--7--5--|

A|--------------|

E|--------------|

[Versetto]
A G D fill 1
Hice a mi cuerpo amigo del viento y la distancia
A G D fill 1
y me fui a buscarle una verdad a mi corazón
A G D fill 1
algo tan grande como el cielo y las montañas
A G D fill 1
y tan pequeño como una gota de rocío.
[Ponte]
A G D fill1
Y ya no estuvo mas conmigo mi corazón
A G E
se fue a posar en cada una de las cosas
A G D fill1
y ya no estuvo mas conmigo mi corazón
A G E
su fue a fundir con la escencia y la sabia.
[Tab]
FILL 2
e|--------------|

B|--------------|

G|--------------|

D|--------------|

A|----2~-3~-/5~-|

E|-3~-----------|

[Ponte]
D C
Y ahora solo un camino he de caminar,
A G E
cualquier camino que tenga corazón
D C FILL2
Atravesando todo su largo sin aliento
D C A
dejando atrás mil razones en el tiempo.
[Coro]
Bb
Y morir queriendo ser libre,
F
encontrar mi lado salvaje,
C
ponerle alas a mi destino,
G
romper los dientes de este engranaje.
Bb
morir queriendo ser libre,
F
encontrar mi lado salvaje,
C
ponerle alas a mi destino,
G
romper los dientes de este engranaje.
[Intro]
G D A G D
e|---------------------|------------------------------------------------------------|------------|

b|---------------------|------------------------------------------------------------|------------|

g|---------------------|(7)---------------------------------------------------------|77777777777-|

D|(5)------------------|(7)--7-5-4-5p4----------------------------------------------|77777777777-|

A|(5)-3-2-0-3-2-0-0-2/3|(5)------------5-(7)--7-5-4-5p4-----(5)----3-2-0-3-2-0-0-2/3|55555555555-|

E|(3)------------------|-----------------(5)-------------5--(3)---------------------|------------|

D A G D
E|----------------------------------------------------------------------------------------|

B|----------------------------------------------------------------------------------------|

G|-(7)-----------------------------------------------------------(7)-7-7--7-7-7--77777777-|

D|-(7)-7-5-4-5p4-------------------------------------------------(7)-7-7--7-7-7--77777777-|

A|-(5)-----------5---(7)-7-5-4-5p4--------(5)--3-2-0-3-2-0-0-2/3-(5)-5-5--5-5-5--55555555-|

E|-------------------(5)-------------5----(3)---------------------------------------------|

e|------|-------|------------------|-----|---------------------|

b|------|-------|------------------|-----|---------------------|

g|-A5---|--G5---|------------------|-D5--|/9~9~~9~9~~9~9~9~9~9-|

D|------|-------|------------(7)---|-----|---------------------|

A|------|-------|----2~-3~-/-(5)~--|-----|---------------------|

E|------|-------|-3~---------------|-----|---------------------|

e|--------------------|-------|------------------|-----|---------------------|

b|-------------5------|-------|------------------|-----|---------------------|

g|--------5-7br--7-5--|--SOL5-|------------------|-RE5-|/9~9~~9~9~~9~9~9~9~9-|

D|(7)-5-7------------7|-------|------------(7)---|-----|---------------------|

A|(7)-----------------|-------|----2~-3~-/-(5)~--|-----|---------------------|

E|(5)-----------------|-------|-3~---------------|-----|---------------------|

A G D A
E|-----------------------------------------------------------------------------|

B|-----------------------------------------------------------------------------|

G|-------7-6---9--7-6------5-4---7--5-4--------------------------5-7-5-7-5-7-5-|

D|-(7)-------7--------(5)------5---------(7)---7-4-5-4------(7)--5-7-5-7-5-7-5-|x2

A|-(7)----------------(5)----------------(5)-----------7-5--(7)----------------|

E|-(5)----------------(3)-----------------------------------(5)----------------|

[Versetto]
A G D A
Hice un lugar en el refugio de mis sueños
A G D A
Y guardé ahí mi tesoro mas preciado
A G D A
donde no llega el hombre con sus jaulas
A G
ni la maquinaria de la supervivencia.
[Ponte]
A G D fill1
Me fue más fácil intentar la vida
A G E
que venderla al intelecto y la conformidad.
[Ponte]
D
Y ahora solo un camino he de caminar,
A G E
cualquier camino que tenga corazón
D C Fill2
Atravesando todo su largo sin aliento
D C A
dejando atrás mil razones en el tiempo.
[Coro]
Bb
Y morir queriendo ser libre,
F
encontrar mi lado salvaje,
C
ponerle alas a mi destino,
G
romper los dientes de este engranaje.
Bb
morir queriendo ser libre,
F
encontrar mi lado salvaje,
C
ponerle alas a mi destino,
G
romper los dientes de este engranaje.
[Tab]
G D A G D
e|---------------------|------------------------------------------------------------|------------|

b|---------------------|------------------------------------------------------------|------------|

g|---------------------|(7)---------------------------------------------------------|77777777777-|

D|(5)------------------|(7)--7-5-4-5p4----------------------------------------------|77777777777-|

A|(5)-3-2-0-3-2-0-0-2/3|(5)------------5-(7)--7-5-4-5p4-----(5)----3-2-0-3-2-0-0-2/3|55555555555-|

E|(3)------------------|-----------------(5)-------------5--(3)---------------------|------------|

D A G D
e|-----------------------------------------------------------------------------------------------|

b|-----------------------------------------------------------------------------------------------|

g|-(7)------------------------------------------------------------------------------------(7)777-|

D|-(7)-7-5-4-5p4--------------------------------------------------------------------------(7)777-|

A|-(5)-----------5---(7)-7-5-4-5p4--------(5)--3-2-0-3-2-0---3-2-0-3-2-0----3-2-0-3-2-0-/-(5)555-|

E|-------------------(5)-------------5----(3)----------------------------------------------------|

Questo sito utilizza i cookie