Bajan

Per aggiungere un elenco personale è necessario effettuare il
o

Pescado Rabioso

Versione
studio
pubblicato da
rafah
Tono
A-
A+
Scorrere
A -> La
Video
Accordi
Traduzione
	 
[Tab]
E E6 E
e|---0---------0-----|

b|-----0----2--------|

g|-------1-----------|

D|-------------------|x4

A|-------------------|

E|-0-------------3b4-|

[Versetto]
E F#m
Tengo tiempo para saber
C#m F#m7/b5 B
si lo que sueño concluye en algo
E F#m
No te apures, ya más loco
C#m F#m7/b5 B
porque entonces cuando las horas
[Coro]
C#m G#m B C#m
bajan, el día es vidrio sin sol.
C#m G#m B Cm7/b5 C#m
Bajan, la noche te oculta la voz
C Am7 G#m7 F#m7
y además, vos querés sol
C#m Emaj7/#5 C#m C#m/D# C#m/E Amaj7
Despacio también, podés hallar la luna.
[Riff]
E E6 E
e|---0---------0-----|

b|-----0----2--------|

g|-------1-----------|

D|-------------------|x4

A|-------------------|

E|-0-------------3b4-|

[Versetto]
E F#m
Viejo roble del camino
C#m F#mdim7 B
tus hojas siempre se agitan algo
E F#m
Nena, nena que bien te ves
C#m F#mdim7 B
cuando en tus ojos no importa si las horas
[Coro]
C#m G#m B C#m
bajan, el día se sienta a morir
G#m B Cmdim6 C#m
Bajan, la noche se nubla sin fin
C C9-C Am7 G#m7 F#m7
y además, vos sos el sol
C#m Emaj7/#5 C#m C#m/D# C#m/E Amaj7
despacio también podés hallar la luna.
[Riff]
E E6 E
e|---0---------0-----|

b|-----0----2--------|

g|-------1-----------|

D|-------------------|x4

A|-------------------|

E|-0-------------3b4-|

Fin y Solo: sobre Riff
[Riff]
E E6 E
e|---0---------0-----|

b|-----0----2--------|

g|-------1-----------|

D|-------------------|x4

A|-------------------|

E|-0-------------3b4-|

Questo sito utilizza i cookie