Enganchate conmigo

Per aggiungere un elenco personale è necessario effettuare il
o

Los Rodríguez

Versione
studio
pubblicato da
iri
Tono
A-
A+
Scorrere
A -> La
Video
Accordi
Traduzione
	 
[Tab]
Em Em7 Em7 Em7
e|------------------------------------------------------------------------|

b|-----7-----5-7-8-7-5-7----5-7-8-7--5------------------------------------|

g|------------------------------------------6--------------4-6-8-6-4-6----|

D|------------------------------------------------------------------------|

A|------------------------------------------------------------------------|

E|------------------------------------------------------------------------|

[Versetto]
Em Am
La última vez que te vi terminé bastante mal
D7 D#dim Em
lejos de casa sólo y las diez de la mañana
Am
tu preferiste otro polvo que ofrecían por ahí
B7 Em
y tu vecina no ha vuelto a contestarme a mi.
[Coro]
Am
No sé porque no estamos de acuerdo
Em
y llegamos a mejor puerto
B7
nosotros nos merecemos aquello
Em E7
que hacemos
Am
mis amigos me dijeron Andrés
Em
no te enamores la primera vez
B7 Em
y no les hice caso.
[Versetto]
Em Am D7
Es un fin de semana largo y dan algo bueno por TV
D7 D#dim Em
y la casa va a parecer grande si tu no vienes que voy a hacer
E7 Am
voy a sacar a pasear mi dolor como un tonto
B7 Em
hasta acabar conmigo.
[Coro]
Am Em
Para mi no existe lugar mejor que aquí solamente los dos
B7 Em E7
engánchate conmigo
Am
Tal vez yo no sea tu hombre ideal
Em
ni tu mi mujer, pero igual
B7 Em
engánchate conmigo
Am
mis amigos me dijeron Andrés
Em
no te enamores la primera vez
B7 Em E7
y no les hice caso.
Em
no te enamores la primera vez
[Solo]
Em - Am - B7 - Em

Em - Am - B7 - Em - E7

[Coro]
Am
No sé porque no estamos de acuerdo
Em
y llegamos a mejor puerto
B7
nosotros nos merecemos aquello
Em E7
que hacemos
Am
mis amigos me dijeron Andrés
Em
no te enamores la primera vez
B7 Em y no les hice caso.
[Coro]
Am Em
Para mi no existe lugar mejor que aquí solamente los dos
B7 Em E7
engánchate conmigo
Am
Tal vez yo no sea tu hombre ideal
Em
ni tu mi mujer, pero igual
B7 Em
engánchate conmigo
F Em
engánchate conmigo
F Em
engánchate conmigo
F Em
[Tab]
Em
e|------------------------------------------------------------------------|

b|-----7-----5-7-8-7-5-7----5-7-8-7--5------------------------------------|

g|------------------------------------------6--------------4-6-8-6-4-6----|

D|------------------------------------------------------------------------|

A|------------------------------------------------------------------------|

E|------------------------------------------------------------------------|

Questo sito utilizza i cookie