A los ojos

Per aggiungere un elenco personale è necessario effettuare il
o

Los Rodríguez

Versione
studio
pubblicato da
iri
Tono
A-
A+
Scorrere
A -> La
Video
Accordi
Traduzione
	 
[Tab]
Em D C G C/G G
e|-----------------------------------------------------|

b|--------------------------------------------------8--|

g|------------------------------7---------------7-9----|

D|--------------------------7/9---9/7-5---5-7/9--------|

A|--------------------------------------7--------------|

E|-----------------------------------------------------|

Em D C G
e|---10-----10---------------10------------------------|

b|---10(12)-10(12)10-8-10(12)--(12)10-8---10-8---------|

g|--------------------------------------9--------------|

D|-----------------------------------------------------|

A|-----------------------------------------------------|

E|-----------------------------------------------------|

C/G G
e|--------15-------------------------------------------|

b|--------15-------------------------------------------|

g|-14(16)-------14(16)14-12-14(16)14-12----------------|

D|--------------------------------------14-------------|

A|-----------------------------------------------------|

E|-----------------------------------------------------|

Em D C G C/G G
e|-----------------------------------------------------|

b|-----------------------------------------------------|

g|-----------------------------------7-----------------|

D|-------------------------------7/9---9-7^9-5-7^5-----|

A|-------------------------------------------------5-7-|

E|-----------------------------------------------------|

[Intro]
Em D C G C/G G
Ohh ohhhh ohhh
[Versetto]
Em D C G [C/G-G]
Sin decir una palabra,
Em D C G [C/G-G]
casi sin decirnos nada
Em D C G [C/G-G]
Sin mirarnos a los ojos
Em
Yo me pregunto por qué?
D C G [C/G-G]
me tuvo que pasar a mi
Em
Yo me pregunto por qué?
D C G [C/G-G]
me tuvo que pasar a mi
[Coro]
Bm Am
Y estoy cansándome de esperar,
Bm Am
pero igual no tengo a donde ir
C
y me dice la gente
D B7
que deje de pensar en ti
[Ponte]
Em - D - C - G - C/G G
ooh ooh ooh
Em - D - C - G - C/G G
ooh ooh ooh
[Versetto]
Em D C G [C/G-G]
Sin decir una palabra,
Em D C G [C/G-G]
casi sin decirnos nada
Em D C G [C/G-G]
Sin mirarnos a los ojos
Em
Yo me pregunto por qué?
D C G [C/G-G]
me tuvo que pasar a mi
Em
Yo me pregunto por qué?
D C G [C/G-G]
me tuvo que pasar a mi
[Coro]
Bm Am
Y estoy cansándome de esperar,
Bm Am
pero igual, pero igual no tengo a donde ir
C
y me dice la gente
D B7
que deje de pensar en ti.
[Solo]
Em D C G
e|-------------------------10--------------------------|

b|---------8---------10(12)--(12)10^8-10---8^10^8------|

g|-----7-----9-7-9-----------------------9-------------|

D|-7/9---9---------------------------------------------|

A|-----------------------------------------------------|

E|-----------------------------------------------------|

C/G G Em
e|-------8-9-10----------------------------------------|

b|-10(12)-------10(12)10-8-10---8----------------------|

g|----------------------------9---9-7------------------|

D|------------------------------------9-9/7-5-7---5----|

A|----------------------------------------------7------|

E|-----------------------------------------------------|

D C G C/G
e|--------------------10-10--------12-12-12-------10-10-10-|

b|-----------8-10(12)-------(12)10----------10(12)---------|

g|-------7-9-----------------------------------------------|

D|-5-7/9---------------------------------------------------|

A|---------------------------------------------------------|

E|---------------------------------------------------------|

G
e|-----------------------------------|

b|-(12)10^8-10(12)-10(12)10^8---8----|

g|----------------------------9------|

D|-----------------------------------|

A|-----------------------------------|

E|-----------------------------------|

[Coro]
C
Y sé que es en vano brindar
D B7
esta noche por nosotros dos
[Versetto]
Em D C G [C/G-G]
Sin decir una palabra,
Em D C G [C/G-G]
casi sin decirnos nada
Em D C G [C/G-G]
Sin mirarnos a los ojos
Em
Yo me pregunto por qué?
D C G [C/G-G] Riff 7
me tuvo que pasar a mi
C
Y sé que es en vano brindar
D B7
esta noche por nosotros dos
Em D C G C/G G
oooh ooh ooh ooooh, sin mirarnos a los ojos
Em D C G C/G G
oooh ooh ooh ooooh,
Em D C G C/G G
oooh ooh ooh ooooh, a los ojos
Em D C G C/G G
Questo sito utilizza i cookie