Lividi Sui Gomiti

Per aggiungere un elenco personale è necessario effettuare il
o

Måneskin

Versione
studio
pubblicato da
iri
Tono
A-
A+
Scorrere
A -> La
Video
Accordi
	 
[Intro]
e|-------------------------------------------------------------------|

B|-------------------------------------------------------------------|

G|-------------------------------------------------------------------|

D|----------5--------------------------5--------------------------5--|

A|-------------------6-5-3-0--------------------6-5-3-0--------------|

E|-3--3-6-3----6-3-3----------3--3-6-3----6-3-3----------3--3-6-3----|

e|----------------------------------------|

B|----------------------------------------|

G|----------------------------------------|

D|----------------------------------------|x2

A|--------6-5-3-0--6-6h8p6-3-3-3-6-5-3-0--|

E|--6-3-3---------------------------------|

Estrofa
[Tab]
e|----3--3--3-------3--3---3--------------------------------------|

B|----3--3----3-----3--3-----3--3h4p3-----------------------------|

G|----3--3----------3--3----------------3--3--5b--3---------3-----|

D|----5--5----------5--5--------------5------------------------5--|x2

A|----5--6----------5--6------------------------------3h5-5-------|

E|-3--3--3-------3--3--3------------------------------------------|

Estribillo
[Tab]

e|---------------------------------------------------------|

B|---------------------------------------------------------|

G|---------------------------------------------------------|

D|-5-5-5-5-5-5-5-5-8-8-8-8-8-8-8-8-10-10-10-10-10-10-10-10-|

A|-5-5-5-5-5-5-5-5-8-8-8-8-8-8-8-8-10-10-10-10-10-10-10-10-|

E|-3-3-3-3-3-3-3-3-6-6-6-6-6-6-6-6-8--8--8--8--8--8--8--8--|

e|-----------------------------------------------------|

B|-----------------------------------------------------|

G|-----------------------------------------------------|

D|-13-13-13-13-13-13-13-13-12-12-12-12-12-12-12-12-----|

A|-13-13-13-13-13-13-13-13-12-12-12-12-12-12-12-12-----|

E|-11-11-11-11-11-11-11-11-10-10-10-10-10-10-10-10-----|

Estrofa
[Tab]
e|----3--3--3-------3--3---3------------------------------|

B|----3--3----3-----3--3-----3--3h4p3---------------------|

G|----3--3----------3--3----------------3-----5-----7b----|

D|----5--5----------5--5--------------5----/7----/8----8--|

A|----5--6----------5--6----------------------------------|

E|-3--3--3-------3--3--3----------------------------------|

e|----3--3--3-------3--3---3-----------------------------|

B|----3--3----3-----3--3-----3--3h4p3--------------------|

G|----3--3----------3--3----------------3--3--5b-5b--5b--|

D|----5--5----------5--5--------------5------------------|

A|----5--6----------5--6---------------------------------|

E|-3--3--3-------3--3--3---------------------------------|

e|-------------|

B|-------------|

G|-------3-----|

D|-------------|

A|----------5--|

E|--3h5--------|

e|----3--3--3-------3--3---3-----------------------------|

B|----3--3----3-----3--3-----3--3h4p3--------------------|

G|----3--3----------3--3----------------3--3--5b-5b--5b--|

D|----5--5----------5--5--------------5------------------|

A|----5--6----------5--6---------------------------------|

E|-3--3--3-------3--3--3---------------------------------|

Estribillo
[Tab]
e|---------------------------------------------------------|

B|---------------------------------------------------------|

G|---------------------------------------------------------|

D|-5-5-5-5-5-5-5-5-8-8-8-8-8-8-8-8-10-10-10-10-10-10-10-10-|

A|-5-5-5-5-5-5-5-5-8-8-8-8-8-8-8-8-10-10-10-10-10-10-10-10-|

E|-3-3-3-3-3-3-3-3-6-6-6-6-6-6-6-6-8--8--8--8--8--8--8--8--|

e|--------------------------------------------------|

B|--------------------------------------------------|

G|--------------------------------------------------|

D|-13-13-13-13-13-13-13-13-12-12-12-12-12-12-12-12--|

A|-13-13-13-13-13-13-13-13-12-12-12-12-12-12-12-12--|

E|-11-11-11-11-11-11-11-11-10-10-10-10-10-10-10-10--|

Puente
[Tab]
e|-------------------------------------------------------|

B|-------------------------------------------------------|

G|-------------------------------------------------------|

D|----------5--------------------------5-----------------|

A|-------------------6-5-3-0--------------------6-5-3-0--|

E|-3--3-6-3----6-3-3----------3--3-6-3----6-3-3----------|

e|-----------------------------------------------------|

B|-----------------------------------------------------|

G|----------5-------------------------5----------------|

D|-----------------------------------------------------|

A|-3--3-6-3---6-3-3-6-5-3-0--3--3-6-3---6-3-3-6-5-3-0--|

E|-----------------------------------------------------|

e|-------------------------|

B|-------------------------|

G|----------8-----------7--|

D|------5-----------4------|

A|-6--6---6-----5--5---5---|

E|-------------------------|

e|-------------------------------------------------------|

B|-------------------------------------------------------|

G|-------------------------------------------------------|

D|----------5--------------------------5-----------------|

A|-------------------6-5-3-0--------------------6-5-3-0--|

E|-3--3-6-3----6-3-3----------3--3-6-3----6-3-3----------|

e|-----------------------------------------------------|

B|-----------------------------------------------------|

G|----------5-------------------------5----------------|

D|-----------------------------------------------------|

A|-3--3-6-3---6-3-3-6-5-3-0--3--3-6-3---6-3-3-6-5-3-0--|

E|-----------------------------------------------------|

e|-----------------------------|

B|-----------------------------|

G|----------8-----------7------|

D|------5-----------4----------|x4

A|-6--6---6-----5--5---5-------|

E|-----------------------------|

Outro
[Tab]
e|----------|

B|----------|

G|----------|

D|--5---5---|

A|--5---5---|

E|--3---3---|

| h Hammer-on

| p Pull-off

| b Bend

| / Slide up

Questo sito utilizza i cookie