Coraline

Per aggiungere un elenco personale è necessario effettuare il
o

Måneskin

Versione
studio
pubblicato da
iri
Tono
A-
A+
Scorrere
A -> La
Video
[Capo al 5]
Accordi
	 
[Tab]
1 Am Dm G C G
e|-----------------|---1---1---1---1-|-----------------|-----------------|

B|---1---1---1---1-|-----------------|---3---3---3---3-|---5---5---3---3-|

G|-----------------|-----------------|-----------------|-----------------|

D|-----------------|-0---0---0---0---|-----------------|-----------------|

A|-0---0---0---0---|-----------------|-2---2---2---2---|-3---3---2---2---|

E|-----------------|-----------------|-----------------|-----------------|

2 F G C G Am G
e|-----------------|-----------------|-----------------|-----------------|

B|-----------------|-----------------|---5---5---3---3-|---1---1---------|

G|---2---2---2---2-|---4---4---4---4-|-----------------|-----------4---4-|

D|-----------------|-----------------|-----------------|-----------------|

A|-----------------|-----------------|-3---3---2---2---|-0---0-----------|

E|-1---1---1---1---|-3---3---3---3---|-----------------|---------3---3---|

[Ponte]
Am
Ma dimmi le tue verità
Dm G
Coraline, Coraline, dimmi le tue verità
C G Am
Coraline, Coraline, dimmi le tue verità
Dm G
Coraline, Coraline, dimmi le tue verità
C
Coraline Coraline
[Versetto]
G Am
Coraline bella come il sole
Dm
Guerriera dal cuore zelante
G
Capelli come rose rosse
C G Am
Preziosi quei fili di rame amore portali da me
Dm
Se senti campane cantare
G
Vedrai Coraline che piange
C
Che prende il dolore degli altri
G Am
E poi lo porta dentro lei
[Ponte]
Dm G
Coraline, Coraline, dimmi le tue verità
C G Am
Coraline, Coraline, dimmi le tue verità
Dm G
Coraline, Coraline, dimmi le tue verità
C
Coraline Coraline
[Versetto]
F G
Però lei sa la verità
C G
Non è per tutti andare avanti
Am G F
Con il cuore che è diviso in due metà
G
È freddo già
C G
È una bambina però sente
Am G F
Come un peso e prima o poi si spezzerà
G C
La gente dirà: "Non vale niente"
G Am G
Non riesce neanche a uscire da una misera porta
F G
Ma un giorno, una volta lei ci riuscirà
[Strumentale]
| Am Em F Dm |x2
[Ponte]
Am Em
E ho detto a Coraline che può crescere
F Dm
Prendere le sue cose e poi partire
Am Em
Ma sente un mostro che la tiene in gabbia
F Dm
Che le ricopre la strada di mine
Am Em
E ho detto a Coraline che può crescere
F Dm
Prendere le sue cose e poi partire
Am Em
Ma Coraline non vuole mangiare no
F Dm
Sì Coraline vorrebbe sparire
[Coro]
Am
E Coraline piange
Em F
Coraline ha l’ansia
Dm Am
Coraline vuole il mare ma ha paura dell’acqua
Em F Dm
E forse il mare è dentro di lei
Am Em
E ogni parola è un'ascia
F
Un taglio sulla schiena
Dm
Come una zattera che naviga
Am
In un fiume in piena
Em F Dm
E forse il fiume è dentro di lei, di lei
[Strumentale]
Am G Em F
[Versetto]
G Am
Sarò il fuoco ed il freddo
G
Riparo d’inverno
Em
Sarò ciò che respiri
F
Capirò cosa hai dentro
G Am
E sarò l’acqua da bere
G
Il significato del bene
Em
Sarò anche un soldato
F
O la luce di sera
G Am
E in cambio non chiedo niente
G
Soltanto un sorriso
Em F
Ogni tua piccola lacrima è oceano sopra al mio viso
G Am
E in cambio non chiedo niente
G
Solo un po’ di tempo
Em
Sarò vessillo, scudo
F G
o la tua spada d’argento e
[Coro]
Am
E Coraline piange
Em F
Coraline ha l’ansia
Dm Am
Coraline vuole il mare ma ha paura dell’acqua
Em F Dm
E forse il mare è dentro di lei
Am Em
E ogni parola è un'ascia
F
Un taglio sulla schiena
Dm
Come una zattera che naviga
Am
In un fiume in piena
Em F Dm
E forse il fiume è dentro di lei, di lei
[Solo]
| Am Em F Dm Am Em F C G |x2
[Outro]
Am
Ma dimmi le tue verità
Dm G
Coraline, Coraline, dimmi le tue verità
C G Am
Coraline, Coraline, dimmi le tue verità
Dm G
Coraline, Coraline, dimmi le tue verità
C
Coraline Coraline
G Am
Coraline bella come il sole
Dm
Ha perso il frutto del suo ventre
G
Non ha conosciuto l’amore
C
Ma un padre che di padre è niente
G Am
Le han detto in città c’è un castello
Dm
Con mura talmente potenti
G
Che se ci vai a vivere dentro
C
Non potrà colpirti più niente
G Am
Non potrà colpirti più niente
Questo sito utilizza i cookie