Planta

Per aggiungere un elenco personale è necessario effettuare il
o

Soda Stereo

Versione
studio
pubblicato da
rafah
Tono
A-
A+
Scorrere
A -> La
Video
Accordi
Traduzione
	 
[Intro]
(Em G C Am Am/G Am) x3
[Versetto]
Em G C Am Am/G Am Am/G
Sabia sabia por mi cuerpo
Em G C
como oro de Acapulco
Am Am/G Am Am/G Em G F#
voy preparandome ah ah ah
B7 Em G F#
no se que me pasa ah ah ah
B7 Am
Que ya no puedo volver
Bm C#m Em C#m Am
Al oir, al oir
Bm E-G-C-Am
Al oir, al oir
[Tab]
e|-----------------------|

B|-----5-----5-----------|

D|-----------------------|

G|-5h6---5h6---7-5-7-5---|

A|---------------------7-|

E|-----------------------|

[Versetto]
Em G C Am Am/G Am Am/G
Tanto irme por las ramas,
Em G C
ahora recorro las heridas
Am Am/G Am Am/G Em G F#
no fue suficiente fe ah ah ah
B7 Em G F#
una vez por semana ah ah ah
B7 Am
Que ya no puedo volver
[Pre-Coro]
Bm C#m Em C#m Am
Al oir, al oir
Bm C#m
Al oir, al oir
[Coro]
F#7 B7
Mi voz vegetal,
A E F# B7
Necesito hoy tener amarrados los pies
A E F# B7 A
En el aire se que soy nada mas que menos
E F#
de lo que podría ser.
B7 A E F# B7
Me resisto a empujarte a otro juego de azar
A E F# B7 A
en el aire reverbera el ansia de mi voz....
E F# B7 A
Mi voz vegetal, vegetal...
E F#
Amor vegetal
[Strumentale]
(E F#) x8

(B7 A E F#m) x2

(E F#) x6

[Tab]
Canto 'A':
Am

G|---------|---------|

D|---------|---------|

A|---------|---------|

E|-5-5-0-3-|-5-5-0-3-|x2

E7 Am A7

G|---------|---------|---------|--------|

D|---------|---------|---------|--------|

A|---7-5-5-|---7-5-5-|---------|-4--4-4-|

E|-0-------|-0-------|-5-5-0-3-|--------|

Questo sito utilizza i cookie