Shiny Happy People

Per aggiungere un elenco personale è necessario effettuare il
o

R.E.M.

Versione
studio
pubblicato da
iri
Tono
A-
A+
Scorrere
A -> La
Video
Accordi
Traduzione
	 

The first Riff is the violin arrangement.

In the last sentence of the main riff, he begins to sing

---------------

El primer Riff, es el arreglo de violines.

Sobre la última frase del Riff principal, canta la primera frase de la estrofa.

[Riff]
G Em Bm C
e|----------------------|-----------------|-----------------|

b|-12---13p12--------12-|-13p12--------12-|-13p12-----------|

g|------------14-12-----|-------14-12-----|-------14-12-14--|

D|----------------------|-----------------|-----------------|

A|----------------------|-----------------|-----------------|

E|----------------------|-----------------|-----------------|

G Em Bm C
e|----------------------|-----------------|-------------|------------|

b|-12---13p12--------12-|-13p12--------12-|-13p12-------|-13-12-10-8-|

g|------------14-12-----|-------14-12-----|-------14-12-|------------|

D|----------------------|-----------------|-------------|------------|

A|----------------------|-----------------|-------------|------------|

E|----------------------|-----------------|-------------|------------|

[Riff]
B E A B E
e|----2p0-2p0----|-----------0-|----0---2--0---|----2p0--2p0----|------------0-|

b|-------------0-|-0--0--h2----|-0-------------|--------------0-|-0--0--h2-----|

g|---------------|-------------|---------------|----------------|--------------|

D|---------------|-------------|---------------|----------------|--------------|

A|---------------|-------------|---------------|----------------|--------------|

E|---------------|-------------|---------------|----------------|--------------|

A B E A B E
e|----2p0-2p0----|-----------0-|-----2--0---|----2p0-2p0----|-----------0-|-----2-0---|

b|-------------0-|-0--0--h2----|-0----------|-------------0-|-0--0--h2----|-0-------0-|

g|---------------|-------------|------------|---------------|-------------|-----------|

D|---------------|-------------|------------|---------------|-------------|-----------|

A|---------------|-------------|------------|---------------|-------------|-----------|

E|---------------|-------------|------------|---------------|-------------|-----------|

Shiny happy people laughing.
[Versetto]
F#m E F#m E Asus2 E
Meet me in the crowd People, people.
F#m E F#m E Asus2 E
Throw your love around Love me, love me.
F#m E F#m E Asus2 E
Take it into town Happy, happy.
F#m E F#m E Asus2 E
Put it in the ground where the flowers grow.
[Ponte]
G E E7
Gold and silver shine.
B E Asus2
[Coro]
B E Asus2
Shiny happy people holding hands
B E Asus2
Shiny happy people holding hands
B E Asus2
Shiny happy people laughing.
[Versetto]
F#m E F#m E Asus2 E
Everyone around. Love them, love them
F#m E F#m E Asus2 E
Put it in your hands. Take it, take it
F#m E F#m E Asus2 E
There's no time to cry. Happy, happy
F#m E F#m E Asus2 E
Put it in your heart where tomorrow shines
[Ponte]
G E E7
Gold and silver shine.
B E Asus2
[Coro]
B E Asus2
Shiny happy people holding hands
B E Asus2
Shiny happy people holding hands
B E Asus2
Shiny happy people laughing.
[Riff]
G Em Bm C
e|-----------------------|-----------------|-----------------|----|

b|-------13p12--------12-|-13p12--------12-|-13p12-----------|----|

g|-12----------14-12-----|-------14-12-----|-------14-12-14--|-12-|

D|-----------------------|-----------------|-----------------|----|

A|-----------------------|-----------------|-----------------|----|

E|-----------------------|-----------------|-----------------|----|

G Em Bm C
e|--------------------|-----------------|-------------|-------------|

b|----13p12--------12-|-13p12--------12-|-13p12-------|-13-12-------|

g|----------14-12-----|-------14-12-----|-------14-12-|-------14-12-|

D|--------------------|-----------------|-------------|-------------|

A|--------------------|-----------------|-------------|-------------|

E|--------------------|-----------------|-------------|-------------|

Here we go!
[Riff]
e|----2p0-2p0----|-----------0-|----0---2--0---|----2p0--2p0----|------------0-|

b|-------------0-|-0--0--h2----|-0-------------|--------------0-|-0--0--h2-----|

g|---------------|-------------|---------------|----------------|--------------|

D|---------------|-------------|---------------|----------------|--------------|

A|---------------|-------------|---------------|----------------|--------------|

E|---------------|-------------|---------------|----------------|--------------|

e|----2p0-2p0----|-----------0-|-----2--0---|----2p0-2p0----|-----------0-|-----2-0---|

b|-------------0-|-0--0--h2----|-0----------|-------------0-|-0--0--h2----|-0-------0-|

g|---------------|-------------|------------|---------------|-------------|-----------|

D|---------------|-------------|------------|---------------|-------------|-----------|

A|---------------|-------------|------------|---------------|-------------|-----------|

E|---------------|-------------|------------|---------------|-------------|-----------|

[Coro]
B E Asus2 B E Asus2
Shiny happy people holding hands (Shiny happy people holding hands)
B E Asus2
Shiny happy people holding hands,
B E Asus2 B E Asus2
Shiny happy people holding hands, (Shiny happy people holding hands)
B E Asus2
Shiny happy people holding hands,
B E Asus2 B E Asus2
Shiny happy people holding hands, (Shiny happy people holding hands)
B E Asus2
Shiny happy people holding hands,
B E Asus2 B E Asus2
Shiny happy people holding hands, (people)
[Outro]
B E Asus2 B E Asus2
People, happy people
B E Asus2
People, people...
Questo sito utilizza i cookie