My Iron Lung

Per aggiungere un elenco personale è necessario effettuare il
o

Radiohead

Versione
studio
pubblicato da
rafah
Tono
A-
A+
Scorrere
A -> La
Video
Accordi
Traduzione
	 
[Intro]
e|---------------------------------|--------------------------------|

B|-----3p0-----0-------1-----------|-----3p0-----0-------1---/----4-|

G|---0-------0---0---0---0-2b3-2-0-|---0-------0---0---2-----/--5--5|

D|---------3-------1---------------|---------3-------1------1/4-----|

A|---------------------------------|--------------------------------|

E|-3-------------------------------|-3------------------------------|

e|---------------------------------|---------------------------------|

B|-----3p0-----0-------1-3-4br3-1--|-----3p0-----0-------1-----------|

G|---0-------0---0---0-------------|---0-------0---0---0---0-2b3-2-0-|

D|---------3-------1---------------|---------3-------1---------------|

A|---------------------------------|---------------------------------|

E|-3-------------------------------|-3-------------------------------|

[Intro]
G Cm G Cm G Cm G Cm
Faith, you're driving me away, you do it everyday, you don't mean it, but it hurts like hell
G Cm G Cm G Cm G Cm
My brain says I'm receiving pain, a lack of oxygen, from my life support, my iron lung
[Intro, 1st & 3rd bar]

We're too young to fall asleep, too cynical to speak, we are losing it, can't you tell

We scratch our eternal itch, a twentieth century bitch, and we are grateful for our iron lung

[Tab]
[Bridge]

e|--------------------------------|---------------------------------|

B|-----3-0-----0-------1----------|-----3-0-----0--(8-7-6-5--4)-----|

G|---0-------0---0---0---0-2^-2-0-|---0-------0---0-3--x-x-x-2---2--|

D|---------3-------1--------------|---------3-------2--x-x-x-1---1--|

A|--------------------------------|-----------------4--x-x-x-3---3--|

E|-3------------------------------|-3-------------------------------|

[Versetto]
Gm7 3x333x C9 x3233x
The head shrinkers, they want everything
E5b 0123xx C#m6 x423xx Cm6 x312xx
My uncle Bill, my Belisha beacon
Gm7 3x333x C9 x3233x
The head shrinkers, they want everything
E5b 0123xx C#m6 x423xx Cm6 x312xx
My uncle Bill, my Belisha beacon

[Intro, 1st & 2nd bar]

[Versetto]
Suck, suck your teenage thumb, toilet trained and dumb, when the power runs out, we'll just hum
G Cm G Cm G Cm second bar bridge
This, this is our new song, just like the last one, a total waste of time, my iron lung
Gm7 3x333x C9 x3233x
The head shrinkers, they want everything
E5b 0123xx C#m6 x423xx Cm6 x312xx
My uncle Bill, my Belisha beacon
Gm7 3x333x C9 x3233x
The head shrinkers, they want everything
E5b 0123xx C#m6 x423xx Cm6 x312xx
My uncle Bill, my Belisha beacon
[Solo]
Gm7 C9 E5b C#m6 Cm6 (2x)
[Versetto]
Bb C C# C
And if you're frightened, you can be frightened, you can be, it's OK
Bb C C# second bar bridge
And if you're frightened, you can be frightened, you can be, it's OK
[Solo]
Gm7 C9 E5b C#m6 Cm6 (2x)
[Versetto]
Gm7 3x333x C9 x3233x
The head shrinkers, they want everything
E5b 0123xx C#m6 x423xx Cm6 x312xx
My uncle Bill, my Belisha beaco
Gm7 3x333x C9 x3233x
The head shrinkers, they want everything
E5b 0123xx C#m6 x423xx Cm6 x312xx
My uncle Bill, my Belisha beacon