Dark Necessities

Per aggiungere un elenco personale è necessario effettuare il
o

Red Hot Chili Peppers

Versione
studio
pubblicato da
rafah
Tono
A-
A+
Scorrere
A -> La
Video
Accordi
Traduzione
	 
[Tab]
(Guitar Base)

P.M . . . . . . . . . . . . . . .

E|-----------------------------------------------------|

B|-----------------------------------------------------|

G|-----------------------------------------------------|

D|-10-10-10-10-10-10-10-10-10-10-10-10-10-10-10-10-----|

A|-----------------------------------------------------|

E|-----------------------------------------------------|

(Guitar Riff)

E|-----------------------------------------------------|

B|-6-----6-----6---6-----6-----6-----------------------|

G|----8-----8----8----8-----8----8---------------------|

D|-----------------------------------------------------|

A|-----------------------------------------------------|

E|-----------------------------------------------------|

E|-----------------6-----------------------------------|

B|-8-----6-----6------6--------------------------------|

G|----8-----8----8-------------------------------------|

D|-----------------------------------------------------|

A|-----------------------------------------------------|

E|-----------------------------------------------------|

[Versetto]
Cm7
Coming on
Ab7M
To the light of day, we got

Many moons
Cm7
That are deep at play, so I

Keep an eye

On the shadow smile
Ab7M Fm7
To see what it has to say
Ab7M
You and I both know
Cm7
Everything must go away

Ah, what do you say?
[Tab]
E|-----------------------------------------------------|

B|-----------------------------------------------------|

G|-3-5-5-5-5-5-5-5-3-5-5-5-5-5-5-5---------------------|

D|-----------------------------------------------------|

A|-----------------------------------------------------|

E|-----------------------------------------------------|

[Versetto]
Cm7
Spinning knot
Ab7M
That is on my heart is like a

Bit of light
Cm7
And a touch of dark, you got

Sneak attack

From the zodiac
Ab7M Fm7
But I see your fire spark
Ab7M
Keep the breeze and go
Cm7
Blow by blow and go away
Oh, what do you say
[Coro]
Ab Fm
You don't know my mind
Cm
You don't know my kind
Dark necessities
Bb
Are part of my design, and
Ab Fm
Tell the world that I'm
Cm
Falling from the sky
Dark necessities
Bb
Are part of my design
[Versetto]
Cm7
Stumble down
Ab7M
To the parking lot, you got
No time
For the afterthought
Cm7
They're like
Ice cream
For an astronaut
Ab7M Fm7
Well that's me looking for we
Ab7M
Turn the corner and
Cm7
Find the world at your command
Playing the hand
[Coro]
Ab Fm
You don't know my mind
Cm
You don't know my kind
Dark necessities
Dark necessities
Bb
Ab Fm
Tell the world that I'm
Cm
Falling from the sky
Dark necessities
Bb
Are part of my design
[Tab]
( Eb Db Fm Ab )
E|----------------------------------------------------8|

B|-15b16r15--13--11--13b14r13--11--9--11b13r11--9--6---|

G|-----------------------------------------------------|

D|-----------------------------------------------------|

A|-----------------------------------------------------|

E|-----------------------------------------------------|

E|----------------------------------------------------6|

B|-15b16r15--13--11--13b14r13--11--9--11b13r11--9--6---|

G|-----------------------------------------------------|

D|-----------------------------------------------------|

A|-----------------------------------------------------|

E|-----------------------------------------------------|

[Ponte]
Eb
Do you want this love of mine?
Db
Darkness helps us all to shine
Fm Ab
Do you want it, do you want it now?
Fm Ab
Do you want it, do you want it now?
Db
But darkness helps us all to shine
Fm
Do you want it, do you want it now?
[Versetto]
Cm7
Pick you up
Ab7M
Like a paperback with the
Cm7
Track record of a maniac, so I
Move it in and we unpack
Ab7M Fm7
It's the same as yesterday
Ab7M
Any way we roll
Cm7
Everything must go away
Oh, what do you say?
[Coro]
Ab Fm
You don't know my mind
Cm
You don't know my kind
Dark necessities
Bb
Are part of my design, and
Ab Fm
Tell the world that I'm
Cm
Falling from the sky
Dark necessities
Bb
Are part of my design
[Solo]
(Part 1 - x4)


E|-11-11-10-10-----------------------------------------|

B|-------------13-13-11-11-----------------------------|

G|-------------------------10h12--12-12-8h10--10-10----|

D|-----------------------------------------------------|

A|-----------------------------------------------------|

E|-----------------------------------------------------|

E|-----------------------------------------------------|

B|-----------------------------------------------------|

G|-----------------------------------------------------|

D|-8h10--10-10-----------------------------------------|

A|-------------8h10--10-10-6h8--8-8--------------------|

E|----------------------------------6h8--8-8-----------|


(Part 2)

E|-----------------------------------------------------|

B|-----------------------------------------------------|

G|-----------------------------------------------------|

D|-----------------------------------------------------|

A|-----------------10-8-10-8h10--10--------------------|

E|-8--8-8-8-8-8-8--------------------------------------|

E|-----------------------------------------------------|

B|-----------------------------------------------------|

G|-----------------------------------------------------|

D|-----------------------------------------------------|

A|-------------------8h10--10--10-10-------------------|

E|-8--8-8-8-8-8-8--8-----------------------------------|

E|-----------------------------------------------------|

B|-----------------------------------------------------|

G|-----------------------------------------------------|

D|-----------------------------------------------------|

A|--------------------8h10--10--10---------------------|

E|-8b10r8--8-8-8-8--8----------------------------------|

E|-----------------------------------------------------|

B|-----------------------------------------------------|

G|-----------------------------------------------------|

D|-----------------------------------------------------|

A|-----------------------------------------------------|

E|-8--8-8-8-8-8-8-13--11--10--11-----------------------|



(Part 3)

E|-----------------------------------------------------|

B|-----------------------------------------------------|

G|-------------------10h12--12--12---------------------|

D|-10--10--10-10--10-----------------------------------|

A|-----------------------------------------------------|

E|-----------------------------------------------------|

E|-----------------------------------------------------|

B|-----------------------------------------------------|

G|-------------------10h12--12--12---------------------|

D|-10--10--10-10--10-----------------------------------|

A|-----------------------------------------------------|

E|-----------------------------------------------------|

E|-----------------------------------------------------|

B|-----------------------------------------------------|

G|-------------------------10h12--12--12---------------|

D|-10b12r10--10--10-10--10-----------------------------|

A|-----------------------------------------------------|

E|-----------------------------------------------------|

E|-----------------------------------------------------|

B|-----------------------------------------------------|

G|---------------10------------------------------------|

D|-10----10--10------13--12--13--10--------------------|

A|-----------------------------------------------------|

E|-----------------------------------------------------|

Questo sito utilizza i cookie