Let It Be

Per aggiungere un elenco personale è necessario effettuare il
o

The Beatles

Versione
studio
pubblicato da
iri
Tono
A-
A+
Scorrere
A -> La
Video
Accordi
Traduzione
	 
[Tab]
C G Am F F6 C
e|---------------------------------0---0----|

b|-1---1---0---0---1---1---1---3---1---1----|

g|-0---0---0---0---2---2---2---2-----0---0--|

D|---2---2---0---0---2-------3---3----------|

A|-3---3-----------0---0-----------3---3----|

E|---------3---3---------3-1---1------------|

G F Em/F F6 C
e|---------1---0----------------------------|

b|-3---3---1---0----3----1---1--------------|

g|-4---4---2---0----2----0---0--------------|

D|---5---5----------3----2-2---2------------|

A|-----------------------3---3--------------|

E|-3---3---1-1------------------------------|

[Intro]
C G Am F C G F Em/F F6 C
[Versetto]
C G
When I find myself in times of trouble
Am F F6
Mother Mary comes to me
C G F Em/F F6 C
Speaking words of wisdom, let it be
[Versetto]
C G
And in my hour of darkness
Am F F6
She is standing right in front of me
C G F Em/F F6 C
Speaking words of wisdom, let it be
[Coro]
Am Am/G F C
Let it be, let it be, let it be, let it be
G F Em/F F6 C
Whisper words of wisdom, let it be
[Versetto]
C G
And when the broken-hearted people
Am F F6
Living in the world agree
C G F Em/F F6 C
There will be an answer, let it be
[Versetto]
C G
For though they may be parted
Am F F6
There is still a chance that they will see
C G F Em/F F6 C
There will be an answer, let it be
[Coro]
Am Am/G F C
Let it be, let it be, let it be, let it be
G F Em/F F6 C
There will be an answer, let it be
Am Am/G F C
Let it be, let it be, let it be, let it be
G F Em/F F6 C
Whisper words of wisdom, let it be
[Ponte]
F - Em/F - F6 - C - Bb - Am - G - F - C/E

F - Em/F - F6 - C - Bb - Am - G - F - C/E

[Solo]
C G Am F
e|------------------------------------------| --------------------------|

b|------------------------------------------| --------------------------|

g|------------------------------------------| --------------------------|

D|---------2p0------------------------------| -------5-7p5--------------|

A|-----3-3-----3-3/5-5----------------------| -3h5/7-------7p5\3--------|

E|-3h5--------------------------------------|--------------------------|

C G F C
e|------------------------------------------| --------------------------|

b|----------------------8-8b10r8------------| --------------------------|

g|----------------5-7/9----------7b9r7-5----| -7b9r7p5------------------|

D|-----5-5-5--5h7---------------------------| ---------7-5--------------|

A|-5/7--------------------------------------| -------------7------------|

E|------------------------------------------|---------------8----------|

C G Am F
e|------------------------------------------| --------------------------|

b|------------------------------------------| ---------8-8b10r8---------|

g|-------------------7/9-7-5h7--------------| -----7b9----------7b9r8-5-|

D|-------------5/7-5-----------7------------| -5h7----------------------|

A|-----5/7-3h5------------------------------| --------------------------|

E|-3h5--------------------------------------|--------------------------|

C G F
e|---------8----------10b12-10-8------------| -----------------------------|

b|-----------8b10r8----------------8--------| ---8b10r8--------------------|

g|-----7/9----------9------------9----------| -9--------7b8r7-5h7-5--------|

D|-5h7--------------------------------------| -----------------------------|

A|------------------------------------------| -----------------------------|

E|------------------------------------------|-----------------------------|

[Coro]
Am Am/G F C
Let it be, let it be, let it be, let it be
G F Em/F F6 C
Whisper words of wisdom, let it be
[Versetto]
C G
And when the night is cloudy
Am F F6
There is still a light that shines on me
C G F Em/F F6 C
Shine until tomorrow, let it be
[Versetto]
C G
I wake up to the sound of music
Am F F6
Mother Mary comes to me
C G F Em/F F6 C
Speaking words of wisdom, let it be
[Coro]
Am Am/G F C
Let it be, let it be, let it be, let it be
G F Em/F F6 C
There will be an answer, let it be
Am Am/G F C
Let it be, let it be, let it be, let it be
G F Em/F F6 C
Whisper words of wisdom, let it be.
[Ponte]
F Em/F F6 C Bb Am G F C
[Tab]
F Em/F F6 C Bb Am G F C/E
e|-1----0-----------------------------------|

b|-1----0----3----1----3----1----0---------1|

g|-2----0----2----0----3----2----0----2----0|

D|-----------3----2----3----2----0----3----2|

A|----------------3----1----0---------3----3|

E|-1--1--------------------------3----1----0|

Questo sito utilizza i cookie