Something

Per aggiungere un elenco personale è necessario effettuare il
o

The Beatles

Versione
studio
pubblicato da
iri
Tono
A-
A+
Scorrere
A -> La
Video
Accordi
Traduzione
	 
[Riff]
F Eb G/D C
e|----------------------------|

b|-10-b13r12p10--11--12--13---|

g|----------------------------|

D|----------------------------|

A|----------------------------|

E|----------------------------|

[Intro]
F - Eb - G/D - C
[Versetto]
C Cmaj7
Something in the way she moves
C7 F F C/E
Attracts me like no other lover
D D7 G Am G/B
Something in the way she woos me
[Ponte]
Am Am7M
I don't want to leave her now
Am7 D7/9
You know I believe, and how
[Riff]
F Eb G/D C
e|----------------------------|

b|-10-b13r12p10--11--12--13---|

g|----------------------------|

D|----------------------------|

A|----------------------------|

E|----------------------------|

[Versetto]
C Cmaj7
Somewhere in her smile she knows
C7 F F C/E
That I don't need no other lover
D D7 G Am G/B
Something in her style that shows me
[Ponte]
Am Am7M
I don't want to leave her now
Am7 D7/9
You know I believe, and how
[Riff]
F Eb G/D A
e|-------------------------------|

b|-10-b13r12p10-11--12--12/14~---|

g|-------------------------------|

D|-------------------------------|

A|-------------------------------|

E|-------------------------------|

[Coro]
A C#m/G# F#m A/E
You're asking me will my love grow
D G A5 Ab5 G5 Gb5 F5 E5
I don't know, I don't know
A C#m/G# F#m A/E
You stick around, now it may show
D G C
I don't know, I don't know
[Riff]
e|-------------------------------|

b|-------------------------------|

g|-------------------------------|

D|-------------------------------|

A|-3-2-0-------------------------|

E|-------3-1-3-------------------|

[Solo]
C Cmaj7 C7 F
e|------------------------------------|------------------------------b12r10-8-----|

b|--------8-------------8b10-b10r8----|-----8/10-8-8/11-13-13-b15r13----------10~-|

g|----7h9---9~------7h9------------9~-|-7h9---------------------------------------|

D|------------------------------------|-------------------------------------------|

A|------------------------------------|-------------------------------------------|

E|------------------------------------|-------------------------------------------|

C/E D D7
e|------------------------------------|----------------------------------|

b|-----13-13\-----8-8-\---------------|---------7-7-b12r10-b12r10-b12r10-|

g|-/14---------/9---------------------|-----6/7--------------------------|

D|------------------------/7~---------|-9\7------------------------------|

A|------------------------------------|----------------------------------|

E|------------------------------------|----------------------------------|

G Am G/B Am Am7M
e|-----------10----------10/12-11-10--|---------------------------------------|

b|-b12r10\8--12-12p11\10--------------|---------------------------------------|

g|-----------12-----------------------|-7b9r7b9r7b9r7p5~--7b9r7b9r7b9r7b9r7p5-|

D|------------------------------------|---------------------------------------|

A|------------------------------------|---------------------------------------|

E|------------------------------------|---------------------------------------|

Am7 D7/9 F Eb G/D C
e|------------------10/12-10-8/10-8----|--------------------------|

b|----------------------------------10-|-10-b13r12p10-11-12--/13~-|

g|-7b9r7b9r7p5/9-12--------------------|--------------------------|

D|-------------------------------------|--------------------------|

A|-------------------------------------|--------------------------|

E|-------------------------------------|--------------------------|

[Ponte]
F Eb G/D C
[Versetto]
C Cmaj7
Something in the way she knows
C7 F F F/E
And all I have to do is think of her
D D7 G Am G/B
Something in the things she shows me
[Ponte]
Am Am7M
I don't want to leave her now
Am7 D7/9
You know I believe, and how
[Ponte]
F Eb G/D A
[Solo]
F Eb G/D C
e|-------------------------------------------15-14----|

b|-10-b13r12p10---11-----12---12/14~---14--14---------|

g|----------------------------------------------------|

D|----------------------------------------------------|

A|----------------------------------------------------|

E|----------------------------------------------------|

F Eb G/D C
e|----------------------------------------------------|

b|-10-b13r12p10-11-12--13-----------------------------|

g|---------------------12-----------------------------|

D|---------------------14-----------------------------|

A|----------------------------------------------------|

E|----------------------------------------------------|

Questo sito utilizza i cookie