Ridiculous Thoughts

Per aggiungere un elenco personale è necessario effettuare il
o

The Cranberries

Versione
studio
pubblicato da
iri
Tono
A-
A+
Scorrere
A -> La
Video
Accordi
Traduzione
	 
[Intro]
A A7 G F
e|-----------------------------------------------------------------------|

b|---5-----5-----5----8-----8-----5------3-----3-----3-----1-----1-----1-|

g|-----6-----6----------6-----6------------4-----4-----------2-----2-----|

D|-7-----7-----7---7------7-----7-----5------5-----5-----3-----3-----3---|x6

A|-----------------------------------------------------------------------|

E|-----------------------------------------------------------------------|

A
e|--------------------------|

b|--5-----------------------|

g|--6-----------------------|

D|--7-----------------------|

A|--------------------------|

E|--------------------------|

[Intro]
Am C F G
A aaa aaaa aaaaaa
[Versetto]
Am C G
Twister does anyone see though you
Am C G
You're a twister, how an animal
Am C
But you're happy now
G
I didn't go along with you
Am C G
So happy now, an animal
[Pre-Coro]
Am C
But you're going to have to hold on
G
You're going to have to hold on
Am C
Or we're going to have to move on
G
Move on, move on
[Coro]
F G
Aaa aaa
Am
I feel alright
Em
And I cried so hard
F G
The ridiculous thoughts aaaa
Am
I feel alright
F G
Aaaa aaa
[Versetto]
Am C G
Twister how. I shouldn't have twisted you
Am C G
You're a Twister how an animal
Am C
It's not going to happen no
G
You're not going to make fun of me
Am C G
Happen no, an animal
[Pre-Coro]
Am C
But you're going to have to hold on
G
You're going to have to hold on
Am C G
Or we're going to have to hold on, hold on, hold on
Am C
Or we're going to have to move on, move on
G
Move on
[Coro]
F G
Aaaa aaa
Am
I feel alright
Em
And I cried so hard
F
The ridiculous thoughts
G Am Em
I feel alright
[Coro]
F G
Aaa aaaaa
Am
I should have lied
Em
But I cried so hard
F
The ridiculous thoughts
G Am
I should ha' lied
[Outro]
F G
But you're gonna have to hold on, you're gonna have to hold on
Am Em
You're gonna have to hold on, Hold on hold on
F G
You're gonna have to hold on, you're gonna have to hold on,
Am
you're gonna have to hold on

to me
Questo sito utilizza i cookie