Melancholy Kaleidoscope

Para adicionar a uma lista pessoal, você deve
ou

All Time Low

Versão
estudio
publicado por
fabricio
Tom
A-
A+
Deslizar
A -> La
Video
[Capo na 2]
Acordes
Tradução
	 
[Intro]
G D A Bm A
|----3-----------|----------------|----3-----------|----0-----------|

|0-1---1-0-1-0---|3---1---0-1-----|0-1---1-0-1-0---|3-------3-1-----|

|--------------0-|--0---0-----0---|--------------0-|--0---0-----0---|

|----------------|----------------|----------------|----------------|

|----------------|----------------|----------------|----------------|

|----------------|----------------|----------------|----------------|

G Em G Bm A
|----3-----------|----------------|----------------|----------------|

|0-1---1-0-1-0---|3---1---0-1-----|5---5---5---5---|3---3---3---5---|

|--------------0-|--0---0-----0---|5---5---5---5---|4---4---4---5---|

|----------------|----------------|----------------|----------------|

|----------------|----------------|----------------|----------------|

|----------------|----------------|----------------|----------------|

G D A Bm A
|----3-----------|----------------|----3-----------|----0-----------|

|0-1---1-0-1-0---|3---1---0-1-----|0-1---1-0-1-0---|3-------3-1-----|

|--------------0-|--0---0-----0---|--------------0-|--0---0-----0---|

|----------------|----------------|----------------|----------------|

|----------------|----------------|----------------|----------------|

|----------------|----------------|----------------|----------------|

G Em G Bm A
|----3-----------|----------------|----------------|--------|

|0-1---1-0-1-0---|3---1---0-1-----|5---5---5---5---|3---3---|

|--------------0-|--0---0-----0---|5---5---5---5---|4---4---|

|----------------|----------------|----------------|--------|

|----------------|----------------|----------------|--------|

|----------------|----------------|----------------|--------|

Nobody...

[Estrofe]
Bm A G G
Nobody wants to hear a sad song
Bm A Em G
So I just grit my teeth and sing along
Bm A G G
There's a choir of the coldest hearts echoin' the halls
Bm A
So a give a little more gas to burn
Em G
And we can fast-cut now to the curtain call
[Refrão]
D Bm A
Melancholy kaleidoscope, it's high time
G G A
You shake things up and get the picture in your head right
D Bm A
Melancholy kaleidoscope, it's all right
G G G A
Can't be one hundred if you're only giving ninety-five
[Instrumental]
| G D A Bm A |x2


[Estrofe]
Bm Bm G G
I wanna hear another fast song
Bm A Em G
Somethin' to tune out all these bad thoughts
Bm A G G
Light a fire in the coldest hearts, fillin' up the halls
Bm A
That’s another lit match to burn
Em G
And we can fast-cut now to the curtain call
D or N.C.
(We now return to our regularly scheduled program)
[Refrão]
D Bm A
Melancholy kaleidoscope, it's high time
G G A
You shake things up and get the picture in your head right
D Bm A
Melancholy kaleidoscope, it's all right
G G A A
Can't be one hundred if you're only giving ninety-five
[Instrumental]
Bm A G G


[Puente]
F#m
So would you please stand by
G
Are we out of time?
Bm
Maybe I'll feel better
A
Give me forty-five
Bm
Staring at the ceiling
A
Choking back my feelings
G N.C.
Can't be one hundred if you're only giving ninety-five
[Refrão]
D Bm A
Melancholy kaleidoscope, it's high time
G G A
You shake things up and get the picture in your head right
D Bm A
Melancholy kaleidoscope, it's all right
G
Can't be one hundred (No)
Bm A
Can't be one hundred if you're only giving ninety-five
[Outro]
G D A Bm A
If you're only giving ninety-five
G Em G G Bm A
Only giving ninety-five
Intro tabs if playing without a capo:


[Tablatura]
G D A Bm A
|----5-----------|----------------|----5-----------|----2-----------|

|2-3---3-2-3-2---|5---3---2-3-----|2-3---3-2-3-2---|5-------5-3-----|

|--------------2-|--2---2-----2---|--------------2-|--2---2-----2---|

|----------------|----------------|----------------|----------------|

|----------------|----------------|----------------|----------------|

|----------------|----------------|----------------|----------------|

G Em G Bm A
|----5-----------|----------------|----------------|----------------|

|2-3---3-2-3-2---|5---3---2-3-----|7---7---7---7---|5---5---5---7---|

|--------------2-|--2---2-----2---|7---7---7---7---|6---6---6---7---|

|----------------|----------------|----------------|----------------|

|----------------|----------------|----------------|----------------|

|----------------|----------------|----------------|----------------|

G D A Bm A
|----5-----------|----------------|----5-----------|----2-----------|

|2-3---3-2-3-2---|5---3---2-3-----|2-3---3-2-3-2---|5-------5-3-----|

|--------------2-|--2---2-----2---|--------------2-|--2---2-----2---|

|----------------|----------------|----------------|----------------|

|----------------|----------------|----------------|----------------|

|----------------|----------------|----------------|----------------|

G Em G Bm A
|----5-----------|----------------|----------------|------------|

|2-3---3-2-3-2---|5---3---2-3-----|7---7---7---7---|5---5-------|

|--------------2-|--2---2-----2---|7---7---7---7---|6---6-------|

|----------------|----------------|----------------|------------|

|----------------|----------------|----------------|------------|

|----------------|----------------|----------------|------------|

Nobody...

Este site utiliza cookies