Alma de Budin

Para adicionar a uma lista pessoal, você deve
ou

Divididos

Versão
estudio
publicado por
iri
Tom
A-
A+
Deslizar
A -> La
Video
Acordes
Tradução
	 
[Intro]
G - D - A - F#m E

A - G D - A - F#m E

A - G D

E

[Estrofe]
A G D A F# E
Sopla el viento dulce del oeste
A G D A F# E
pedaleando hasta el amanecer
A G D A F# E
alberg?ndose en la medialuna
A G D A F# E
va buscando asilo el atontao
[Refrão]
D F#
Parado de pecho en el techo del tren
G A
va la bala humana sin razón
D F#
Parado de pecho en el techo del tren
G A
cromado como copa de campeón
E
de ping pong
[Solo]
A G D A G D
e|----------------------12-|----------------------------------|

b|-14--12-14-15--14-15-----|-14--12-14-15--14-12--------12----|

g|-------------------------|---------------------12--14----14-|

D|-------------------------|----------------------------------|

A|-------------------------|----------------------------------|

E|-------------------------|----------------------------------|

A G D A G D
e|----------------------12-|-------------------------------------|

b|-14--12-14-15--14-15-----|-14--12-14-15--14-12--------12----17-|

g|-------------------------|---------------------12--14----14----|

D|-------------------------|-------------------------------------|

A|-------------------------|-------------------------------------|

E|-------------------------|-------------------------------------|

[Estrofe]
A G D A F#m E
Racias y atropellos en Saenz Peña
A G D A F#m E
noches de colado al volver
A G D A F#m E
ofrendas de uvas en el piso
A G D A F#m E
va buscando asilo el atontao
[Refrão]
D F#m
Parado de pecho en el techo del tren
G G A
mantecoso alma de budín
D F#m
Parado de pecho en el techo del tren
G G A
vuelve a casa s?lo y salpicao
[Puente]
E
sin gabán
A G D
atontao
A G D
sin gabán
A G D
el campeón
A G D
de ping pong
G D A